Dave Herrick - Happy To See You Chords & Tabs

 

Happy To See You Chords & Tabs

Dave Herrick Chords & Tabs

Version: 1 Type: Bass Tab 0 ratings
1 star 2 stars 3 stars 4 stars 5 stars
comments

Happy To See You Bass Tab

Dave Herrick - Happy To See You
Big Dick (Harrypothead@abcdefg.com)

G------------------------------------------------------------------------------------------------------------
D------------------------------------------------------------------------------------------------------------
A------------------------------------------------------------------------------------------------------------
E---0--0-0--0-0--2--3--5--6-8-8-8---9--3--2--4p5------5-2-7-2-----5-7-2-2-7---5-----4--4-4-4---5--7-2--2--1--
[ Tab from: http://www.guitartabs.cc/tabs/d/dave_herrick/happy_to_see_you_btab.html ]
MAIN RIFF:
G------------------------------------------------------------------------------------------------------------
D------------------------------------------------------------------------------------------------------------
A------------------------------------------------------------------------------------------------------------
E- 0-0-0-0-0-3-0---4--4--3-2--3--5----------2--3-5---2-------2--3-5---0--0-0---0-0----2-3-5---0-0---00000000-

BASS INTERLUDE:
G------5------1---2-3-5----2-3-5-----5-4----3-3---
D-4-5---4-5---0----------2------4-5-----4-5-----0-
A-0-----0-----------------0------0--------0-------1-
E-------------------------------------------------------

OUTRO:
G---------------------------------------------------------------------------------------------
D---------------------------------------------------------------------------------------------
A---------------------------------------------------------------------------------------------
E--1--1-1---1-1--1--1--1-1---1-1--1---000000000-1--1-1--1--1--1--1--1--1--00000000000-2--2--
Comments