Dave Herrick - Grape Juice Chords & Tabs

 

Grape Juice Chords & Tabs

Dave Herrick Chords & Tabs

Version: 1 Type: Bass Tab 0 ratings
1 star 2 stars 3 stars 4 stars 5 stars
comments

Grape Juice Bass Tab

Dave Herrick - Grape Juice
Hi How Are You (imdoingfine@myhouse.com)

                                 Dave Herrick
                                 Grape Juice

G------------------------------||----------
D------------------------------||--5-3--3--
A--4-6h-6-6-------6------------||----------
E-----------7-5-x---7-5-x-2-0--||----------
[ Tab from: http://www.guitartabs.cc/tabs/d/dave_herrick/grape_juice_btab.html ]
G-----8-------------------------||
D-------8---7-------------------||
A--6------6---6--6-7h-8-7h-9-9--||
E-------------------------------||


G-----13--------------------------------||--------------||
D-------13---12-------------------------||--------------||
A-11------11---11--11-12h-11-12h-14-14--||-11-11-9-7-6--||
E---------------------------------------||--------------||


G-------||
D-------||
A-------||
E--2-0--||
Comments