Dave Herrick - Ears Of The Cat Chords & Tabs

 

Ears Of The Cat Chords & Tabs

Dave Herrick Chords & Tabs

Version: 1 Type: Bass Tab 0 ratings
1 star 2 stars 3 stars 4 stars 5 stars
comments

Ears Of The Cat Bass Tab

Dave Herrick - Ears Of The Cat
Sunny (SuNNieDeLIghT@bigreen.com)

G--------------------------------------
D--------------------------------------
A------3p5------3------3p5------55-5555
E-0-00-----0-00---0-00-----0-00--------

[ Tab from: http://www.guitartabs.cc/tabs/d/dave_herrick/ears_of_the_cat_btab.html ]
G----------------------------------------------------------------------
D---------------2----------3-------2-------3---------2-----------------
A----------------------------------------------------------------------
E1-0-00-1-000-00--1--3-4--1-3p1-1-0-1-1-0-1-3-0-1-3-0-1-3-0-1-3-55-5555
Comments