Dave Herrick - Dead End Chords & Tabs

 

Dead End Chords & Tabs

Dave Herrick Chords & Tabs

Version: 1 Type: Bass Tab 0 ratings
1 star 2 stars 3 stars 4 stars 5 stars
comments

Dead End Bass Tab

   
Dave Herrick
Dead End

(acoustic bass)

(intro)

G---------------------2--7-5-2-3-1-3-5-3-0-------------------
D--12-15-12-16-17-18-----------------------0--15-12-16-17-18-
A------------------------------------------------------------
E-0----0----0----0-----2-----2-----2-----2----0---0---0---0--

(continued)

G----1-3-5-6---1-5-7-8---0-2-3-5---2-0-2-0---4-0-6-0---4-5-4-0
D---0--------2---------3---------0---------2---------3--------
A-------------------------------------------------------------
E-0------2---------0---------2---------0-------2---------0----

(verse 1)

G--------------------------------------------------------
D--------------------------------------------------------
A-3-3-3-3-3-3-3-3-3-3-3-3-3-3-3-5-5-5-5-5-5-5-5-5-5-0-5-5
E--------------------------------------------------------

(pre chours)
[ Tab from: http://www.guitartabs.cc/tabs/d/dave_herrick/dead_end_btab.html ]
G---------------------------------------------------------
D---2---2---2---2---2---2---2---2---2---2---2---2---2---2-
A-3---3---0---0---2---2---0---0---3---3---0---0---0---0---
E---------------------------------------------------------

(chours)

G------------------------------------------------------------
D------------------------------------------------------------
A-0-----0-----0-----0-----2----2-----2----2p3--------0---0---
E------------------------------------------------------------

(verses 2&3)

G-------------------------------------------------------------
D-------------------------------------------------------------
A-0-0-0-0-0-0-0-0-0-0-0-0-0-2-2-2-2-2-2-2-2-2-2-2-0--2-2-2-2-2
E-------------------------------------------------------------

(ending)

G--12--12--12--12---------
D--12--12--12--12---------
A-----------------------2-
E-0---0---0---0-----------
Comments