Dave Herrick - Beware Of Disneyland Chords & Tabs

 

Beware Of Disneyland Chords & Tabs

Dave Herrick Chords & Tabs

Version: 1 Type: Bass Tab 0 ratings
1 star 2 stars 3 stars 4 stars 5 stars
comments

Beware Of Disneyland Bass Tab

Dave Herrick - Beware of Disneyland

Tuned down half a step
[ Tab from: http://www.guitartabs.cc/tabs/d/dave_herrick/beware_of_disneyland_btab.html ]
                              S  L  A  P  P  I  N  G
E|-----------------------------------------------------------------
A|-----------------------------------------------------------------
D|----------------------------------------------3------------------
G|3////////////////19\\\\\\\\3-3-33-3-3-3-33-3p5--3-3-33-3-3-3-33-3

E|-------------------------------------------
A|-------------------------------------------
D|-------------------------------------------
G|-7----5----7----0-0-0--7----5--9p10/12\\\\3

E|-------------------------2-
A|----------------------2p4--
D|------------------2p4------
G|-0-0-00-0-0-0-00-0---------
Comments