Dave Herrick - Axes Chords & Tabs

 

Axes Chords & Tabs

Dave Herrick Chords & Tabs

Version: 1 Type: Bass Tab 0 ratings
1 star 2 stars 3 stars 4 stars 5 stars
comments

Axes Bass Tab

   
song:AXES
artist:DAVE HERRICK

REALLLLLLY fast

intro:
G-----------------------------------------------------------------------
D----2--2-2-2-222---22--2--3---3---4------------------------------------
A-----------------------------------------------------------------------
E-000-00-0-0-00-0-000000000011111111222355555886677323822922229229229229
[ Tab from: http://www.guitartabs.cc/tabs/d/dave_herrick/axes_btab.html ]
pre-chorus:
G-----------------------------------------------
D-----------------------------------------------
A-------------------------------------------3333
E-000030030030030030030030030030050060708090----

chorus:
(Slap-pop)
G-------------------------
D---2----2---2--5-5-5-5-5-
A-------------------------
E-0--0-0--0-0--3-3-3-3-3-3

Ending:

G-----------------------------------
D-----------------------------------
A-----------------------------------
E-3----0---0--0--2--0--0-0----000000
====
Comments