Dave Cenaffra - One Way Street Chords & Tabs

 

One Way Street Chords & Tabs

Dave Cenaffra Chords & Tabs

Version: 1 Type: Tab 0 ratings
1 star 2 stars 3 stars 4 stars 5 stars
comments

One Way Street Tab

dave cenaffra 
"one way street"
(C)2000...tabbed onto site: 2/2002

intro:
--------------------------------------------------
-----0---1---0-------0---1---0-------0---1---0----
---0---0---0---0---0---0---0---0---0---0---0---0-- (x3 into 
-2------------------------------------------------   chords)
-----------------3--------------------------------
---------------------------------3----------------

----------------------------------------
-----0---1---0--------------------------
---0---0---0---0------------------------
-0--------------------------------------
----------------------------------------
----------------------------------------
[ Tab from: http://www.guitartabs.cc/tabs/d/dave_cenaffra/one_way_street_tab.html ]
-x-  -x- -x- -x-   (listen 4 changes)    final time:  -2-
-3-  -3- -3- -3-                                      -3-
-0-  -0- -2- -0-                                      -2-
-2-  -0- -0- -2-                                      -0-
-2-  -2- -0- -3-                                      -0-
-x-  -3-  -  -x-                                       -

verse
chords:

-3-  -3- -x- -2-  
-3-  -3- -3- -3-
-0-  -0- -0- -2-  
-2-  -2- -0- -0-   (pick through)
-2-  -3- -2-  -
 -    -  -3-  -


pre-chorus:

-x- -3- -3- -x
-3- -3- -3- -3
-0- -2- -0- -0
-2- -0- -2- -0
-2- -0- -3- -2
-x-  -  -x- -3


chorus : same as  chords in the intro

final 2 chorus' and interlude:  -3- -3- -2- -0- 
                                -3- -3- -3- -1-
                                -0- -0- -2- -0-
                                -2- -0- -0- -2- 
                                -2- -2- -0- -3-     
                                -x- -3-  -   -

end on: -3- -2- -0- -x-
        -3- -3- -1- -3-
        -0- -2- -0- -0-
        -2- -0- -2- -0-
        -2- -0- -3- -x- 
        -x-  -  -x- -3-


Comments