Dave Barnes - What Am I Gonna Do Chords & Tabs

 

What Am I Gonna Do Chords & Tabs

Dave Barnes Chords & Tabs

Version: 1 Type: Tab 0 ratings
1 star 2 stars 3 stars 4 stars 5 stars
comments

What Am I Gonna Do Tab

   
-------------------------------------------------------------------------------
			     What Am I Gonna Do - Dave Barnes
-------------------------------------------------------------------------------
Tabbed by: Chris Case
Email: chris@northsouthband.com
Website: www.northsouthband.com
Album: Brother, Bring the Sun

Tuning: Tuned Down 1/2 Step

Chords Used:
     Eb  Cm*  Cm/maj7  Bb*  Ab* Cm  Bb  Abm7  F
eb|--0----X----X-------7---5-----0---0----------------------------------------|
Bb|--0----X----X-------7---5-----0---0---5----7-------------------------------|
Gb|--9----9----8-------8---6-----6---4---5----6-------------------------------|
Db|--9----9----9-------9---7-----6---4---5----8-------------------------------|
Ab|--7----X----X-------9---7-----4---2--------9-------------------------------|
Eb|-(0)---9----9-------7---5-------------5------------------------------------|

Eb                
Call me courageous
     Cm/maj7            Cm        Cm/maj7  Cm               
Cause that's what I'm trying to be
           Eb
And we'll break through our silence
     Cm/maj7        Cm        Cm/maj7  Cm  
That's breaking it way through me
Bb*               
Without you I'm a sinner
Ab*
Without you I'm a saint
Cm
Without you I can do it
Bb
Without you I just can't

Eb           Ab*
Hey, what am I gonna do
        Bb*                          Ab*
What am I gonna do without you by my side? 
Eb           Ab*
Hey, what am I gonna do
        Bb*                          Ab*
What am I gonna do without you by my side? 
[ Tab from: http://www.guitartabs.cc/tabs/d/dave_barnes/what_am_i_gonna_do_tab.html ]
Eb 
Speak to me somehow
     Cm/maj7     Cm    Cm/maj7  Cm    
A word's all I need to hear
Eb
To call for the sunlight
     Cm/maj7        Cm    Cm/maj7  Cm    
That left when you disappeared
Bb*               
Without you I'm a sinner
Ab*
Without you I'm a saint
Cm
Without you I can do it
Bb
Without you I just can't

Eb           Ab*
Hey, what am I gonna do
        Bb*                          Ab*
What am I gonna do without you by my side? 
Eb           Ab*
Hey, what am I gonna do
        Bb*                          Ab*
What am I gonna do without you by my side? 

Bridge Chords:
Abm7 - Eb
Abm7 - Bb

Eb           F
Hey, what am I gonna do
        Ab*                           Eb
What am I gonna do without you by my side? 
Eb           F
Hey, what am I gonna do
        Ab*                           Eb
What am I gonna do without you by my side? 
Eb           Ab*
Hey, what am I gonna do
        Bb*                          Ab*
What am I gonna do without you by my side? 
Eb           Ab*
Hey, what am I gonna do
        Bb*                          Ab*
What am I gonna do without you by my side? 

Electric lick over verse chords
eb|---------------------------------------------------------------------------|
Bb|-9-10-12-----9-10-12-----------9---------9---------------------------------|
Gb|---------9-----------8---6-8-9-----6-8-9-----------------------------------|
Db|---------------------------------------------------------------------------|
Ab|---------------------------------------------------------------------------|
Eb|---------------------------------------------------------------------------|

| /  slide up
| \  slide down
| h  hammer-on
| p  pull-off
| ~  vibrato
| +  harmonic
| x  Mute note
===============================================================================
Comments