Dave Barnes - Nothing Fancy Chords & Tabs

 

Nothing Fancy Chords & Tabs

Dave Barnes Chords & Tabs

Version: 1 Type: Tab 0 ratings
1 star 2 stars 3 stars 4 stars 5 stars
comments

Nothing Fancy Tab

   
-------------------------------------------------------------------------------
			     Nothing Fancy - Dave Barnes
-------------------------------------------------------------------------------
Tabbed by: Chris Case
Email: chris@northsouthband.com
Website: www.northsouthband.com
Album: Brother, Bring the Sun

Tuning: Standard

Chords Used:
    G  Am2  G/B  D  F  D/F#  Em7  C9
e|--3---0----3---2--1---2-----3----3-----------------------------------------|
B|--3---3----3---3--1---3-----3----3-----------------------------------------|
G|--0---2----0---2--2---2-----0----0-----------------------------------------|
D|--0---2----0---0--3---0-----2----2-----------------------------------------|
A|--2---0----2------3---0-----2----3-----------------------------------------|
E|--3---------------1---2-----0----------------------------------------------|

This tab is a blend of the live and CD version
Verses:
    G      Am  G/B  D               G      Am  G/B  D 
e|------3-------3-------2-------2-------3-------3-------2-------2------------|
B|----3---3---3---3---3---3---3---3---3---3---3---3---3---3---3---3----------|
G|---------------------------------------------------------------------------|
D|------------------0-------0-----------------------0-------0----------------|
A|----------0---2---------------------------0---2----------------------------|
E|--3-------------------------------3----------------------------------------|

    G      Am  G/B  D               F      D/F#      G
e|------3-------3-------2-------2-------1-------2----3-----------------------|
B|----3---3---3---3---3---3---3---3---1---1---3---3--3-----------------------|
G|---------------------------------------------------------------------------|
D|------------------0-------0------------------------------------------------|
A|----------0---2------------------------------------------------------------|
E|--3-------------------------------1-------2--------3-----------------------|
[ Tab from: http://www.guitartabs.cc/tabs/d/dave_barnes/nothing_fancy_tab.html ]
G               Am            G/B      D
There's nothing fancy bout the way I love you
G                    Am        G/B     D
There's nothing you could not find in any other man
G               Am            G/B      D
There's nothing fancy bout the way I love you
F                 D/F#       G
But I love you as hard as I can
G               Am             G/B      D
There's no good reason for the way you love me
G               Am      G/B       D
But you're my walking dream come true
G               Am             G/B      D
There's no good reason for the way you love me
F          D/F#          G
But I thank God that you do

G D/F#  Em7      C9           G
I don't know the perfect conversation
G D/F#  Em7      C9             G
I don't know the way to turn a head
G D/F#  Em7      C9             G    D/F# Em
I don't know the perfect way to prove my love
C9                                 D
But I know I'll love you till I'm dead

Guitar Solo

G               Am            G/B      D
There's nothing fancy bout the way I love you
G                      Am          G/B         D
It's as simple as the stars in the sky or the blue in the sea
G               Am            G/B      D
There's nothing fancy bout the way I love you
F              D/F#               G
But it sure is fancy how you love me
F              D/F#               G
But it sure is fancy how you love me         

Guitar solo
e|---------------------------------------------------------------------------|
B|---------------------------------------------------------------------------|
G|---------------------------------------------------------------------------|
D|---------------------------------------------------------------------------|
A|------2-3-2-------2--------------2-3-2-------2-5--5-3-2-----2-3-2-------2--|
E|-3--5-------5-3-5---5-5/7\5-3--5-------5-3-5------------3-5-------5-3-5---5|

e|---------------------------------------------------------------------------|
B|---------------------------------------------------------------------------|
G|---------------------------------------------------------------------------|
D|---------------------------------------------------------------------------|
A|---2------0----------------------------------------------------------------|
E|-5---5-1----1-2--0-2-3-----------------------------------------------------|

| /  slide up
| \  slide down
| h  hammer-on
| p  pull-off
| ~  vibrato
| +  harmonic
| x  Mute note
===============================================================================
Comments