Datsuns - Sittin Pretty Chords & Tabs

 

Sittin Pretty Chords & Tabs

Datsuns Chords & Tabs

Version: 2 Type: Tab 0 ratings
1 star 2 stars 3 stars 4 stars 5 stars
comments

Sittin Pretty Tab

Guitar 1

E--------------------------------------------------
B-----------8---10b12p8----------------------------
G------7h9--------------9p7------------------------
D---9-------------------------9--------------------
A--------------------------------------------------
E--------------------------------------------------

Then Guitar 2 Comes In

E--------------------------------------------------
B--------------------------------------------------
G--------------------------------------------------
D----------5---7b9p5-------------------------------
A-----5h7-------------7p5--------------------------
E--7------------------------7----------------------


Lazy Days
E--------------------------------------------------
B----3---------------------------------------------
G----2---------------------------------------------
D----0---------------------------------------------
A----0---------------------------------------------
E--------------------------------------------------

Are On My Mind
E--------------------------------------------------
B----3---------------------------------------------
G----3---------------------------------------------
D----3---------------------------------------------
A----0---------------------------------------------
E--------------------------------------------------


Just Repeat That

Solo

E--------------------------------------------------
B---15bhold-15b-15b--15--12------12----------------
G----------------------------14------14b---12------
D----------------------------------------------14--
A--------------------------------------------------
E--------------------------------------------------

[ Tab from: http://www.guitartabs.cc/tabs/d/datsuns/sittin_pretty_tab_ver_2.html ]
E--17b--17-15------15-------15b17r15---------------
B--------------17------17--------------------------
G--------------------------------------------------
D--------------------------------------------------
A--------------------------------------------------
E--------------------------------------------------

E--15p12---15p12-----------------------------------
B-----------------15p12---------12---------15------
G--------------------------14---------14-----------
D--------------------------------------------------
A--------------------------------------------------
E--------------------------------------------------


E-------15b---15---12------------------------------
B--12--------------------15---12-------------------
G----------------------------------16b17---16---14-
D--------------------------------------------------
A--------------------------------------------------
E--------------------------------------------------

E--------------------------------------------------X2
B--------15b17-------------------------------------
G--16----------------------------------------------
D--------------------------------------------------
A--------------------------------------------------
E--------------------------------------------------

Second Time

E--15---17b----------------------------------------
B--------------------------------------------------
G--------------------------------------------------
D--------------------------------------------------
A--------------------------------------------------
E--------------------------------------------------

There's Some Crazy Stuuf Going On Here At The End, Get Yourself A Wah Pedal And Play Something Like This

E--------------------------------------------------
B--------------------------------------------------
G---14b---14b----14b----10b----9b----7b------------
D--------------------------------------------------
A--------------------------------------------------
E--------------------------------------------------


If You Want Any Other Datsuns Songs' Tabbed, E-mail Me At zev1987@yahoo.com
Comments