Datsuns - Mf From Hell Chords & Tabs

 

Mf From Hell Chords & Tabs

Datsuns Chords & Tabs

Version: 2 Type: Tab 0 ratings
1 star 2 stars 3 stars 4 stars 5 stars
comments

Mf From Hell Tab

   
I was looking for this but couldnt find it so I tabbed it myself.
Ive played it along with the song and what I've written here is right.

~ vibrato
b bend

Intro/ chorus riff

e]----------------------------
B]----------------------------
G]--6-------------------------
D]--6-------------------------
A]--4---------2---------2-----
E]----0-2-3-4---0-2-3-4---3-2-

Verse riff

e]----------------------------
B]----------------------------
G]--6-6-6-6-6-6-6-6-6-6-------
D]--6-6-6-6-6-6-6-6-6-6-------
A]--4-4-4-4-4-4-4-4-4-4-2-----
E]------------------------3-2-

1st solo (1:00)
Gtr 1

e]---------------------------------------------------------------
B]---------------------------------------------------------------
G]------4----6------------------------4----6---------------------
D]-2----4----6-------------------2----4----6---------------------
A]-2----2----4-------------------2----2----4---------------------
E]-0-----------------------------0-------------------------------

Gtr 2
[ Tab from: http://www.guitartabs.cc/tabs/d/datsuns/mf_from_hell_tab_ver_2.html ]
e]-----------14b16-14-12-14----------------19b20-14-12-14-14-16~
B]--------------------------14~----------------------------------
G]---------------------------------------------------------------
D]---------------------------------------------------------------
A]---------------------------------------------------------------
E]---------------------------------------------------------------

Solo 2 (1:54)
Gtr 1

e]---------------------------------------------------------------
B]---------------------------------------------------------------
G]------4----6------------------------4----6---------------------
D]-2----4----6-------------------2----4----6---------------------
A]-2----2----4-------------------2----2----4---------------------
E]-0-----------------------------0-------------------------------

Gtr 2

e]------------------------------------------19b21-19b21-14-12-14b16-14-12----
B]-----------12b14-9------------------------------------------------------14-
G]-------------------11-9-11-11b---------------------------------------------
D]---------------------------------------------------------------------------
A]---------------------------------------------------------------------------
E]---------------------------------------------------------------------------

I havent got the end solo. Shame.

Peace Out.
Abe.
Comments