Datsuns - Mf From Hell Chords & Tabs

 

Mf From Hell Chords & Tabs

Datsuns Chords & Tabs

Version: 1 Type: Tab 0 ratings
1 star 2 stars 3 stars 4 stars 5 stars
comments

Mf From Hell Tab

TAB:MF From Hell By The Datsuns

Song:MF From Hell
Artist:The Datsuns
Album:The Datsuns
   
   So...it looks like I've won the race to tab this great song.
I'm sorry I don't have more of it at the moment, 
but I don't have much time. I'll update it as soon as I can.

OK...the main riff goes like this:

e----------------------------------------------------------
B----------------------------------------------------------
G----------------------------------------------------------
D----------------------------------------------------------
A-4---------2----------2-------4---------2----------2------
E---0-2-3-4----0-2-3-4-----4-2---0-2-3-4----0-2-3-4-----4-2

and so on...
You sort of hurry the last beat of each bar, as if it comes too soon.

After this first riff is played three times, the rhythm guitar part goes:
[ Tab from: http://www.guitartabs.cc/tabs/d/datsuns/mf_from_hell_tab.html ]
e----------------------------------------------------------
B----------------------------------------------------------
G----------------------------------------------------------
D-11-11-11-11-11-11-11-11-11-11-11-9---6-4-----------------
A-11-11-11-11-11-11-11-11-11-11-11-9---6-4-----------------
E-9--9--9--9--9--9--9--9--9--9--9--7---4-2-----------------

e----------------------------------------------------------
B----------------------------------------------------------
G----------------------------------------------------------
D-11-11-11-11-11-11-11-11-11-11-11-9---6-4-----------------   etc
A-11-11-11-11-11-11-11-11-11-11-11-9---6-4-----------------
E-9--9--9--9--9--9--9--9--9--9--9--7---4-2-----------------

Play the above two times, then you're back into part 1.(2 Times)

Next, it's part two, twice again, then part 1, twice.

I'm not yet entirely sure of the chorus chords, 
but I think the first part of it may be this:

e----------------------------------------------------------
B----------------------------------------------------------
G----------------------------------------------------------
D-2----4----6----6----9----4----6----6---------------------
A-2----4----6----6----9----4----6----6---------------------
E-0----2----4----4----7----2----4----4---------------------

Then it goes onto a slightly different chord seq. 
but I've got to go now! I'l' try and put the rest 
up in a couple of days. Enjoy!




Comments