Datsuns - Im In Love Chords & Tabs

 

Im In Love Chords & Tabs

Datsuns Chords & Tabs

Version: 2 Type: Tab 0 ratings
1 star 2 stars 3 stars 4 stars 5 stars
comments

Im In Love Tab

   
This is all i could be bothered to tab out.

Intro

    G5   A#5   C5
|--------------------------------------------------------
|--------------------------------------------------------
|---------3--\--5-----------3--\--5----------------------
|----5----3--\--5------5----3--\--5----------------------
|----5----1--\--3------5----1--\--3----------------------
|----3-----------------3---------------------------------
                 PM..              PM..

[ Tab from: http://www.guitartabs.cc/tabs/d/datsuns/im_in_love_tab_ver_2.html ]
    G5   A#5   C5   C#5  C5   A#5  F5
|--------------------------------------------------------
|--------------------------------------------------------
|---------3--\--5----6----5----3-------------------------
|----5----3--\--5----6----5----3----3--------------------
|----5----1--\--3----4----3----1----3--------------------
|----3------------------------------1--------------------
                 PM..                PM....   

Im preety sure this is used for the chorus aswell

ROCK ON !!! If anyone has any tabs for new red hot chili pepper songs
can you e-mail me at spakmanuk@hotmail.com. CHEERS

TIM xxx
Comments