Datsuns - I Got No Words Chords & Tabs

 

I Got No Words Chords & Tabs

Datsuns Chords & Tabs

Version: 1 Type: Tab 0 ratings
1 star 2 stars 3 stars 4 stars 5 stars
comments

I Got No Words Tab

This is the best song off of their Outta Sight/Outta Mind CD and I saw that nobody had 
a tab for it so decided to give it a try

I Got No Words
by: The Datsuns

Intro(Guitar made for bass)
Fig.1     Fig.2
e------|-----------------------------------------------------|
B------|-----------------------------------------------------|
G------|-------------------------2-2-------------------------|
D-(8x)-|-----4/--------0h2-0-2/4-----4/2-0--------0h2--------|2x
A-0h2--|---------0h2-2----------------------0h2-2------0h2---|
E------|-----------------------------------------------------|


Verse(Guitar)
Fig.3
e----------------------------------------------|
B----------------------------------------------|
G--------------------2-2-----------------------|
D----------0h2-0-2/4-----4/2-0---------0h2-----|4x
A--0h2-2-2---------------------0h2-2-2-----0h2-|
E----------------------------------------------|

Fig.1 \
Fig.2  1x
Fig.3 /
[ Tab from: http://www.guitartabs.cc/tabs/d/datsuns/i_got_no_words_tab.html ]
Bridge
e--------------------------|------------------------------------------|
B--------------------------|------------------------------------------|
G--7------7------4------4--|----7-----7-----11-----11---11-11-11-11---|
D--7------7------4------4--|3x--7-----7-----11-----11---11-11-11-11---|
A--5------5------2------2--|----5-----5-----9------9----9--9--9--9----|
E--------------------------|------------------------------------------|

Fig.3 a bunch of times under the solo. Use the wah wah pedal and pick out the
      solo on the E pentatonic scale.

This is played a couple times during the solo
e---------------------------------------------------------------------|
B-----------------------------------3-3-------------------------------|
G---------------------2-2-------2/4-----4/2~--------------------------|
D----------0h2-0--2/4-----4/2~------------------------0h2-------------|
A--0h2-2-2------------------------------------0h2-2-2-----0h2---------|
E---------------------------------------------------------------------|

Fig.4(listen to the song to get the strumming timing)
e-------------------------------------------|
B-------------------------------------------|
G--4--4-X-2-2-2-X--7-7--X--9-9-9------------|
D--4--4-X-2-2-2-X--7-7--X--9-9-9------------|
A--2--2-X-0-0-0-X--5-5--X--7-7-7------------|
E-------------------------------------------|

Fig.3(4x)guitar 2 plays with wah wah pedal

lots of feedback

Thats pretty much it....sounds good too me....rate it please
T.C.M.
Comments