Datsuns - Hoochie Mama Chords & Tabs

 

Hoochie Mama Chords & Tabs

Datsuns Chords & Tabs

Version: 1 Type: Bass Tab 0 ratings
1 star 2 stars 3 stars 4 stars 5 stars
comments

Hoochie Mama Bass Tab

   
------------------------------------------------------------------------------
			     Hoochie Mama - The Datsuns
-------------------------------------------------------------------------------

Tabbed By : Nat

Tuning: Normal

Main bit
E||--00-3-4-55-4-3-00-3-0--|
A||------------------------|
G||------------------------|
D||------------------------|
[ Tab from: http://www.guitartabs.cc/tabs/d/datsuns/hoochie_mama_btab.html ]
Pre-chorus
E||--7-7-7-7--5-5-5-5---00-3-4-55-4-3-00-3-0---------|
A||--------------------------------------------------|
G||--------------------------------------------------|
D||--------------------------------------------------|

Chorus
E||--5-5-5-5---0-0-0-0--5-5-5-5---0-0-0-0---5-5-5-5---0-0-0-0---------------------|
A||-------------------------------------------------------------2-2-2-2--2-2-2-2--|
G||-------------------------------------------------------------------------------|
D||-------------------------------------------------------------------------------|

Really easy and fun to play.

| /  slide up
| \  slide down
| h  hammer-on
| p  pull-off
| ~  vibrato
| +  harmonic
| x  Mute note
===============================================================================
Comments