Datsuns - Hong Kong Fury Chords & Tabs

 

Hong Kong Fury Chords & Tabs

Datsuns Chords & Tabs

Version: 2 Type: Tab

Hong Kong Fury Tab

   
-------------------------------------------------------------------------------
			     Hong Kong Fury - The Datsuns
-------------------------------------------------------------------------------
Tabbed by: Hector
Email: heckee@gmail.com

Tuning: Standard.

I guess it's a 100% correct.

Intro
e|--------------------------------------------------------------------|
B|--------------------------------------------------------------------|
G|--------------------------------------------------------------------|
D|--------------------------------------------------------------------|
A|---5h7-5h7--5h7-5---------5-----------------------------------------|
E|------------------7-5-5h7---7(p5)\3-5-3-0~ -------------------------|
[ Tab from: http://www.guitartabs.cc/tabs/d/datsuns/hong_kong_fury_tab_ver_2.html ]
Verse
Step by step and inch to inch, she draws closer, man i wish...
e|----------------------------------------------------------|
B|----------------2-3-2-------------------------------------|
G|----------------------2-----------------------------------|.
D|----------------------------------------------------------|.
A|--2--ringout~-------------------------------------------------|
E|--0-------------------------------------------------------|


Refrain (Intro)
(Hong Kong) Hong kong fury!
e|--------------------------------------------------------------------|
B|--------------------------------------------------------------------|
G|--------------------------------------------------------------------|
D|--------------------------------------------------------------------|
A|---5h7-5h7--5h7-5---------5-----------------------------------------|
E|------------------7-5-5h7---7(p5)\3-5-3-0---------------------------|

| /  slide up
| \  slide down
| h  hammer-on
| p  pull-off
| ~  vibrato
| +  harmonic
| x  Mute note
| :  Repeat