Datsuns - Hong Kong Fury Chords & Tabs

 

Hong Kong Fury Chords & Tabs

Datsuns Chords & Tabs

Version: 1 Type: Tab 0 ratings
1 star 2 stars 3 stars 4 stars 5 stars
comments

Hong Kong Fury Tab

   
-------------------------------------------------------------------------------
			     Hong Kong Fury - The Datsuns
-------------------------------------------------------------------------------
Tabbed by: RiffRaff16
Email: alexdunning@hotmail.com

This is a top song on Outta sight/Outta mind with a killer riff, and I thouhgt I'd like 
be the 1st to tab it!

Tuning: standard

  Intro/Chorus: Fig.1
e|---------------------------------------------------------------------------|
B|---------------------------------------------------------------------------|
G|---------------------------------------------------------------------------|
D|--0h2----0h2----0-2----0-------------0-------------------------------------|
A|-------------------------2----0-0h2-----2p0-----0--------------------------|
E|--------------------------------------------3-----3---0--------------------|  x4

  Verse 1: Fig.2
e|---------------------------------------------------------------------------|
B|-------------------------2b3r2---------------------------------------------|
G|--2-----------------------------2------------------------------------------|
D|--2------------------------------------------------------------------------|
A|--0------------------------------------------------------------------------|
E|---------------------------------------------------------------------------|  x3

e|---------------------------------------------------------------------------|
B|---------------------------------------------------------------------------|
G|--2------------------------------------------------------------------------|
D|--2------------------------------------------------------------------------|
A|--0------------------------------------------------------------------------|
E|---------------------------------------------------------------------------|

  (Chorus)
[ Tab from: http://www.guitartabs.cc/tabs/d/datsuns/hong_kong_fury_tab.html ]
  Verse 2: Fig. 3
e|---------------------------------------------------------------------------|
B|---------------------------------------------------------------------------|
G|--2-----------0-------2----------------------------------------------------|
D|--2-----------2-------2----------------------------------------------------|
A|--0-----------3-------0--------2-------2-----------------------------------|
E|-------------------------------3-------0-----------------------------------| \
                                                                                x3
e|---------------------------------------------------------------------------| /
B|---------------------------------------------------------------------------|
G|--2------------------------------------2-----------------------------------|
D|--2-----------5---\---2----------------2-----------------------------------|
A|--0-----------3---\---0--------2-------0-----------------------------------|
E|--------------------------3----0-------------------------------------------|

e|---------------------------------------------------------------------------|
B|---------------------------------------------------------------------------|
G|--2-----------0-------2----------------------------------------------------|
D|--2-----------2-------2----------------------------------------------------|
A|--0-----------3-------0--------2-------2-----------------------------------|
E|-------------------------------3-------0-----------------------------------|

e|---------------------------------------------------------------------------|
B|---------------------------------------------------------------------------|
G|----2----------------2---------------2--------2----2----2----2-------------|
D|----2----------------2---------------2--------2----2----2----2-------------|
A|----0----------------0---------------0--------0----0----0----0-------------|
E|--3----------------3---------------3--------3----3----3----3---------------|

    Then Fiddle around with the E minor pentatonic at the 12th fret with wah over the 
for the solo.
  I'll have it tabbed soon.

  After this play the A chord in the build up to the Chorus (Fig. 1) and then repeat 
before the final
  chorus/solo.

  Cheers ;)


| /  slide up
| \  slide down
| h  hammer-on
| p  pull-off
| ~  vibrato
| +  harmonic
| x  Mute note
===============================================================================
Comments