Datsuns - Harmonic Generator Chords & Tabs

 

Harmonic Generator Chords & Tabs

Datsuns Chords & Tabs

Version: 5 Type: Tab 0 ratings
1 star 2 stars 3 stars 4 stars 5 stars
comments

Harmonic Generator Tab

Harmonic Generator (Inter Modulator) - The Datsuns
Tabbed by - pnk_rok_animal
Heavy Distortion, the Strumming pattern is irregular but all down-strums. 
Listen to the song to find out where the riffs all come in. 

R = rest
* = Palm mute
/ = slide to 
~ =let ring

(Riff 1, Play once.)
E|---------------------------------
B|---------------------------------
G|---------------------------------
D|--7r*--77*--77*-7*-7--7*---------   
A|--7r*--77*--77*-7*-7--7*---------
E|--5r*--55*--55*-5*-5--5*---------

(Riff 2: verse/solo. Repeat lots)
E|---------------------------------
B|---------------------------------
G|---------------------------------
D|--77*--77*--77*-7*-7--7*---------   
A|--77*--77*--77*-7*-7--7*---------
E|--55*--55*--55*-5*-5--5*---------

(Riff 3: Chorus. Repeat twice)
E|---------------------------------|---------------------------------
B|---------------------------------|---------------------------------
G|---------------------------------|---------------------------------
D|--5r*--55*--55*-5*/-101010-------|--77*--77*--77*-7*-7--7*---------     
A|--5r*--55*--55*-5*/-101010-------|--77*--77*--77*-7*-7--7*---------
E|--3r*--33*--33*-3*/-8-8-8--------|--55*--55*--55*-5*-5--5*---------
[ Tab from: http://www.guitartabs.cc/tabs/d/datsuns/harmonic_generator_tab_ver_5.html ]
(Riff 2: verse/solo. repeat lots)
E|---------------------------------
B|---------------------------------
G|---------------------------------
D|--77*--77*--77*-7*-7--7*---------   
A|--77*--77*--77*-7*-7--7*---------
E|--55*--55*--55*-5*-5--5*---------

(Riff 3: Chorus. Repeat twice)
E|---------------------------------|---------------------------------
B|---------------------------------|---------------------------------
G|---------------------------------|---------------------------------
D|--5r*--55*--55*-5*/-101010-------|--77*--77*--77*-7*-7--7*---------     
A|--5r*--55*--55*-5*/-101010-------|--77*--77*--77*-7*-7--7*---------
E|--3r*--33*--33*-3*/-8-8-8--------|--55*--55*--55*-5*-5--5*---------

Don’t ask what the solo is! ‘Cos I cant play it!


(Riff 5: fill. repeat as long as needed)
E|----------------
B|----------------
G|----------------
D|--777*-7~------- 
A|--777*-7~-------
E|--555*-5~-------
 
(Riff 4: Ending. Play till end)
E|--------------------------------------
B|--------------------------------------
G|--------------------------------------
D|--77-77-77-77-77-77/555/7*--------------   
A|--77-77-77-77-77-77/555/7*--------------
E|--55-00-55-00-55-00/333/5*--------------

End on this with last “yeah!” and shake the neck about a bit.
E|-----------
B|-----------
G|-----------
D|--7~------- 
A|--7~-------
E|--5~-------
Comments