Datsuns - Harmonic Generator Chords & Tabs

 

Harmonic Generator Chords & Tabs

Datsuns Chords & Tabs

Version: 3 Type: Tab 0 ratings
1 star 2 stars 3 stars 4 stars 5 stars
comments

Harmonic Generator Tab

                           Harmonic Generator
                            By The Datsuns

Here it is, the whole damn thing...



Main Riff
e------------------|-------------------|
B------------------|-------------------|
G------------------|-------------------|
D-8-------8-------|-8-8---8---8-----|
A-8-------8-------|-8-8---8---8-----|
E-6-------6-------|-6-6---6---6-----|


Chorus
e-------------------|------------------|
B-------------------|------------------|
G-------------------|------------------|
D-5-------5-5-----|-6-6---6---11---|
A-5-------5-5-----|-6-6---6---11---|
E-3-------3-3-----|-4-4---4---9-----| 

Repeat main riff once, play again and go back to main riff


Solo 1 (Christian plays this and Phil plays the verse riff)

e--6------6-6-----|-6-----6----------|
B--6------6-6-----|-6-----6----------|
G-----------------|---8^10-----------|
D-----------------|------------------|
A-----------------|------------------|
E-----------------|------------------|

e-6---------------|-6---------------|
B-6---------------|-6---------------|
G---8-6---6-------|---8-6b7b6-------|
D-------8---------|-----------------|
A-----------------|-----------------|
E-----------------|-----------------|

e--------6-----------|-----------------|
B------6---9-6-------|-----------------|
G---/8---------8-6b--|b7---------------|
D--------------------|-----8-6-8-------|
A--------------------|-----------------|
E--------------------|-----------------|

e------10~~~-----------|------8---6-----------|
B----------------------|----------------------|
G-/10------------------|---/8-----------------|
D----------------------|----------------------|
A----------------------|----------------------|
E----------------------|----------------------|






Bridge
e-------------------|---------------------|
B-------------------|---------------------|
G-------------------|---------------------|
D--3----------------|-----------1-1-1-3---|
A--3----------------|-----------1-1-1-3---|
E-------------------|---------------------|
[ Tab from: http://www.guitartabs.cc/tabs/d/datsuns/harmonic_generator_tab_ver_3.html ]
Solo 2 
e--------------------------|----------------------------|
B--------------------------|----------------------------|
G--------------------------|----------------------------|
D--------------------------|-13~~~~~~~~~----------------|
A-13~~~~~~~----------------|----------------------------|
E--------------------------|----------------------------|

e-------------------------|-----------------------|
B-------------------------|-----------------------|
G-------------------------|-----------------------|
D-11bbbb12bb11------------|-----------11----------|
A-------------13-11-------|-13~~-----/13----------|
E-------------------------|-----------------------|

e-----------------|--------------------------------------|
B-----------------|--------------------------------------|
G-----------------|--------------------------------------|
D-13~~~~~~~~~~~~~-|-13~~~~~~~~~~11-13-15~----------------|
A-----------------|--------------------------------------|
E-----------------|--------------------------------------|

e--------------------------------------------------|
B--------------------------------------------------|
G--------------------------------------------------|
D~~~~~~/slow slide/21~~~~~~~~~---------------------|
A--------------------------------------------------|
E--------------------------------------------------|
        



Outro

Phil plays 8 times
e------------------|--------------------------|
B------------------|--------------------------|
G------------------|--------------------------|
D-8-------8--------|-8-8---8---11-11-11-------|
A-8-------8--------|-8-8---8---11-11-11-------|
E-6-------6--------|-6-6---6---9---9---9------|

Christian plays 8 times over the top
e--------------------------|------------------|
B--------------------------|------------------|
G15-13----15---13-----|-15-13-----------------|
D-------15----------------|-------15----------|
A--------------------------|------------------|
E--------------------------|------------------|


then end on
e------|
B------|
G-7----|
D-8----|
A-8----|
E-6----|

To end, I'd like to say, DON'T just tabs parts of songs!!! If 
you're going to submit a song include the solos and the bridge
links and DON'T just tab intros!!!

I hope you realise i expect the full tab for 'Sittin Pretty'  
in exchange for this

     - Chris Dent     therealchrisdent@hotmail.com
Comments