Datsuns - Harmonic Generator Chords & Tabs

 

Harmonic Generator Chords & Tabs

Datsuns Chords & Tabs

Version: 11 Type: Tab 0 ratings
1 star 2 stars 3 stars 4 stars 5 stars
comments

Harmonic Generator Tab

Title: Harmonic Generator
Artist: The Datsuns
Tuning: Normal

Intro:

E|----------------|------------------------|
B|----------------|------------------------|
G|----------------|------------------------|  x8
D|---8-------8--8-|--8--8-----8-----8--8---|
A|---8-------8--8-|--8--8-----8-----8--8---|
E|---6-------6--6-|--6--6-----6-----6--6---|

Chorus:

E|----------------|-------------------|----------------|----------------------|
B|----------------|-------------------|----------------|----------------------|
G|----------------|---------6---------|----------------|----------------------| x2
D|---5-------5--5-|--6--6---6---6-6-6-|---8-------8--8-|--8--8-----8-----8--8-|
A|---5-------5--5-|--6--6---4---6-6-6-|---8-------8--8-|--8--8-----8-----8--8-|
E|---3-------3--3-|--4--4-------4-4-4-|---6-------6--6-|--6--6-----6-----6--6-|

Then:
Intro x4
Chorus x2

First solo:

E|-------------|-------------|--------------|------------|
B|-------------|-------------|--6-6-5-------|---6-6-5----|
G|--------6--6-|-------------|------------6-|------------|
D|---8---------|-----87~~8--|---------8----|----------8-|
A|-------------|-------------|--------------|------------|
E|-------------|-------------|--------------|------------|

E|--1------6--4-----------|----------------------10~~~~~~~|---8-----8----6--|
B|--4----6-------6--4-----|-------------------------------|---11------------|
G|----------------------5-|------------------10-----------|-----------------|
D|------------------------|----8--68~~~~~----------------|-----------------|
A|------------------------|-------------------------------|-----------------|
E|------------------------|-------------------------------|-----------------|

Chorus x2

Bridge:

E|-----------------------------|--------------------|--------------------|--------------|
B|-----------------------------|--------------------|--------------------|--------------|
G|---{let these parts ring out}|--------------------|--------------------|--------------|
D|--3--------------------------|3-3-3-3-3-----------|3-3-3-3-3-----------|3-3-3-3-3-----|
A|--3--------------------------|3-3-3-3-3-----------|3-3-3-3-3-----------|3-3-3-3-3-----|
E|--1--------------------------|1-1-1-1-1-----------|1-1-1-1-1-----------|1-1-1-1-1-----|

Second solo (and intro):
[ Tab from: http://www.guitartabs.cc/tabs/d/datsuns/harmonic_generator_tab_ver_11.html ]
E|-------------------------|------------------------------|-----------------|
B|-------------------------|------------------------------|-----------------|
G|-------------------------|------------------------------|-----------------|
D|--15~~~~~~~~~~~~~~~~~~~~~|11~~~~~~~~~~~~~~~~~~~~~~~~~---|86-8~~~~--------|
A|-------------------------|------------------------------|-----------------|
E|-------------------------|------------------------------|-----------------|


E|-------------------------|-----------|----------|--11~~~~~~~~~~~~~~~~~~~~~|
B|-2-4---------------------|-----------|--10~~~~~~|-------------------------|
G|------10~~~~~~~~~~~~~~~~~|--------8--|----------|-------------------------|
D|-------------------------|---11------|----------|-------------------------|
A|-------------------------|-----------|----------|-------------------------|
E|-------------------------|-----------|----------|-------------------------|


E|---------------------|-------------------|----------------------------|----9----------|
B|---------------------|-------------------|----------------------------|-11--------11--|
G|---------------------|-------------------|----------------15-13-------|---------------|
D|------12----12-10-12-|-10----------------|--11------13-15-------15-13-|---------------|
A|---------------------|-------------11----|----------------------------|---------------|
E|---------------------|-------------------|----------------------------|---------------|


E|---------------------|---------------9--|--13-13-11-9------------9--|--13-13-11-9-----|
B|---------------------|------------11----|-------------11------11----|-------------11--|
G|---------------------|------------------|---------------------------|-----------------|
D|----12----------13---|------------------|---------------------------|-----------------|
A|---------------------|------------------|---------------------------|-----------------|
E|---------------------|------------------|---------------------------|-----------------|


E|------------------------|---6-6----4-----4--6-|----6--------4----|6-6----4-----46----|
B|-------11-------9-------|--------6------------|--6---6-4-------4-|-----6--------------|
G|----10----10-8--------8-|---------------------|------------------|--------------------|
D|------------------------|---------------------|------------------|--------------------|
A|------------------------|---------------------|------------------|--------------------|
E|------------------------|---------------------|------------------|--------------------|


E|----6--------4----|6-6----4-----46--|----6--------4----|6-6----4-----4-6---|
B|--6---6-4-------4-|-----6------------|--6---6-4-------4-|-----6-------------|
G|------------------|------------------|------------------|-------------------|
D|------------------|------------------|------------------|-------------------|
A|------------------|------------------|------------------|-------------------|
E|------------------|------------------|------------------|-------------------|
Comments