Datsuns - Harmonic Generator Chords & Tabs

 

Harmonic Generator Chords & Tabs

Datsuns Chords & Tabs

Version: 1 Type: Tab 0 ratings
1 star 2 stars 3 stars 4 stars 5 stars
comments

Harmonic Generator Tab

Main riff

:------------------------------------------------------
:------------------------------------------------------
:------------------------------------------------------ 
:------------------------------------------------------
:-8--x-8-8-x-8-8-x-8-x-8---------------------------------
:-6--x-6-6-x-6-6-x-6-x-6---------------------------------


Chorus

:------------------------------------------------------
:------------------------------------------------------
:------------------------------------------------------ 
:----------------------6-6--------------------------------
:-5--x-5-5-x-6-6-x-6-x-4-4----8--x-8-8-x-8-8-x-8-x-8--------
:-3--x-3-3-x-4-4-x-4-x--------6--x-6-6-x-6-6-x-6-x-6--------

Solo 1

:-6\7-8\9-------------------------------------------------------------
:-4\5-6\7---6h7---------6--------5------6------------3---4-----5bu----
:---------8-----8--8\9----8--7\8----8\9---7-5\8--7p5---6---6-7--------
:---------------------------------------------------------------------
:---------------------------------------------------------------------
:---------------------------------------------------------------------

:------------------------------------
:---4--------11---------12-----------------
:-6---5\15/9----14bu-14----13-----------------------------
:-----------------------------12/---------
:----------------------------------
:--------------------------------
Interlude

:------------------------------------------------------
:------------------------------------------------------
:------------------------------------------------------
:------------------------------------------------------
:--1---1-1-1-1--1-1-1-1--1--1111111-888888-------------
:--3---3-3-3-3--3-3-3-3--3--3333333-666666-------------

Solo 2 
e|-----------------------------------------------
B|-----------------------------------------------
G|-----------------------------------------------
D|---------------13~~~~~~~~~~~~~~~~~~~~~~~~~~~---
A|-13~~~~~~~~~~~---------------------------------
E|-----------------------------------------------
[ Tab from: http://www.guitartabs.cc/tabs/d/datsuns/harmonic_generator_tab.html ]
e|-----------------------------------------------
B|-----------------------------------------------
G|-----------------------------------------------
D|-11~~~~~~~~~~-----------------11-13/15~~~~~~~~-
A|--------------13-11-13~~~--13------------------
E|-----------------------------------------------

e|-----------------------------------------------
B|-----------------------------------------------
G|-------------20~~~~~~~~~~~~~~~~~~~~------------
D|-/20~~~~~~~------------------------------------
A|-------------------------------------17p16p15--
E|-----------------------------------------------

e|-----------------------------------------------
B|-----------------------------------------------
G|-------------15----------15----15-15-17b-15----
D|-------15-17----17-15-17----17-----------------
A|----17-----------------------------------------
E|-18--------------------------------------------

e|-----------------------------------------------
B|------------------------18-18-16------------16-
G|------------------15-17----------17--15--17----
D|-----/15-15b---17------------------------------
A|-17--------------------------------------------
E|-----------------------------------------------

e|-----------------------------------------------
B|--18-18-16-------------------------------------
G|-----------17--15------------------------------
D|-----------------------------------------------
A|-----------------------------------------------
E|-----------------------------------------------

OUTRO

e|-----------------------------------------------
B|-----------------------------------------------
G|--15-13----13-------------15-13-------13bb-----   X8
D|--------15------15-13-----------15-------------
A|-----------------------------------------------
E|-----------------------------------------------


END

:------------------------------------------------------
:------------------------------------------------------
:------------------------------------------------------ 
:------------------------------------------------------
:-8--x-8-8-x-8-8-x-8-x-6-6-6------------------------------
:-6--x-6-6-x-6-6-x-6-x-4-4-4-------------------------------
Comments