Datsuns - Harmonic Generator Chords & Tabs

 

Harmonic Generator Chords & Tabs

Datsuns Chords & Tabs

Version: 1 Type: Bass Tab 0 ratings
1 star 2 stars 3 stars 4 stars 5 stars
comments

Harmonic Generator Bass Tab

   
THE DATSUNS – HARMONIC GENERATOR BASS TAB

The first 1:46 min. of the song, there is no bass. 
The bass begins to play at the bridge.




Bridge : 

   “So come on, now let’s shake it down…”
Gb ------------------|----------------------|
Db ------------------|----------------------|
Ab ------------------|----------------------|
Eb 2-----------------|----------------0-0-1-|  Repeat 3 times
 


At the heavy part, you play this (while the guitar plays his solo): 

Gb -----------------------------|
Db -----------------------------|
Ab -----------------------------|
Eb --8----8-8----8-8---8--8-----|  Repeat as much as necessary.	



Chorus : 
[ Tab from: http://www.guitartabs.cc/tabs/d/datsuns/harmonic_generator_btab.html ]
 “Like a har…”
Gb ----------------|----------------|-----------|--------------|
Db ----------------|----------------|-----------|--------------|
Ab ----------------|----------5-5-0-|-----------|--------------|
Eb ------4----4-4--|--5-5--5--------|-8----8-8--|--8-8---8—-8--|
      “A har…”
Gb ----------------|----------------|-----------|------------
Db ----------------|----------------|-----------|------------
Ab ----------------|----------5-5-0-|-----------|------------
Eb ------4----4-4--|--5-5--5--------|-8----8-8--|--8-8-8-8-8-



Outro : 

Gb ------|----------------|----------
Db ------|----------------|----------
Ab ------|----------------|----------
Eb 6-6-7-|8---8-6-8---8-6-|—8-8-6-8—-  Repeat 8 times.

End up with : 

Gb ------|----------------|
Db ------|----------------|
Ab ------|----------------|
Eb 6-6-7-|8---------------|


Submitted by : Robbert Verwijlen
Email: Hardrock@schoolsucks.com

If you have any questions, corrections or anything like that, please email me.	     
Comments