Datsuns - Fink For The Man Chords & Tabs

 

Fink For The Man Chords & Tabs

Datsuns Chords & Tabs

Version: 2 Type: Tab 0 ratings
1 star 2 stars 3 stars 4 stars 5 stars
comments

Fink For The Man Tab

a class song from the datsuns enjoy

intro
feedback on c b--13
e----------------------------------------------------|
b----------------------------------------------------|
g------5---5-7-5-7b-5---5-5-----------5----5--7--5---|
d---7--5-7-5-7-5-7b-5-7-5-5-5------7--5-7--5--7--5---|
a---7----7------------7-----5------7----7------------|
e----------------------------------------------------|

e----------------------------------------------------|
b----------------------------------------------------|
g------5---5-7-5-7b-5---5-5-----------5----5--7--7---|
d---7--5-7-5-7-5-7b-5-7-5-5-5------7--5-7--5--7--7---|
a---7----7------------7-----5------7----7------------|
e----------------------------------------------------|

main riff
e-------------------------------|
b-------------------------------|
g------5---5-7-5-7b-5---5-5-----|
d---7--5-7-5-7-5-7b-5-7-5-5-5---|
a---7----7------------7-----5---|
e-------------------------------| x 4

e----------------------------------|
b----------------------------------|
g----------------------------------|
d----55555555555555555---4-3-------|
a----33333333333333333---2-1-------|
e----------------------------------|

main riff x 2
verse
main riff x 2

[ Tab from: http://www.guitartabs.cc/tabs/d/datsuns/fink_for_the_man_tab_ver_2.html ]
chorus
e-----------------------------------------------|
b-----------------------------------------------|
g----5---------2----------5----------7----------|
d----5---------2----------5----------7----------|
a----3---------0----------3----------5----------|
e-----------------------------------------------|

main riff x4
verse
main riff x 2
verse
main riff x 2
chorus

solo
e----55555555--55---55-----------------------|
b----55555555--55---55--8/-7-5----5--7b-5----|
g------------7b---7b----8/-7-5-7--5--7b-5-7--|
d-----------------------------------------7--|
a--------------------------------------------|
e--------------------------------------------|

e-----------------------------------------------------------------------|
b--------------------------13----13--15b-15b-15b-13---------------------|
g-------------7---7--9/-14----14---------------------14--12-----12--14--|
d--------7--9---9--------------------------------------------14---------|
a---6h7-----------------------------------------------------------------|
e-----------------------------------------------------------------------|

e-------------------------------7-8---|
b-------5--8------7--9----7h8h9-------|
g--2/-5-------5/7---------------------| x 2
d-------------------------------------|
a-------------------------------------|
e-------------------------------------|

e------------------------------------------------------------|
b--17h20----17h20----17h20----17h20----17h20----20b----------|
g--------19-------19-------19-------19-------19--------------|
d------------------------------------------------------------|
a------------------------------------------------------------|
e------------------------------------------------------------|
Comments