Datsuns - Cherry Lane Chords & Tabs

 

Cherry Lane Chords & Tabs

Datsuns Chords & Tabs

Version: 1 Type: Tab 0 ratings
1 star 2 stars 3 stars 4 stars 5 stars
comments

Cherry Lane Tab

Cherry Lane
The Datsuns
Outta Sight, Outta Mind (2004)

Tabbed By Adam Squire
Cymruambythwxm@aol.com
www.soundclick.com/adamsquire

Verse
E]-------------------------------------|
B]-------------------------------------|
G]-------------------------------------|  X4
D]-------------------------------------|
A]--8--2--10--3---2---5---7------------|
E]--5--0--8---1---0---3---5------------|
[ Tab from: http://www.guitartabs.cc/tabs/d/datsuns/cherry_lane_tab.html ]
Chorus
E]-----------------------        ----------------|
B]-----------------------        ----------------|
G]-----------------------  x3    ----------------|  x1
D]-----------------------        ----------------|
A]--3--10---5---7--------        --3--10---9-----|
E]--1--8----3---5--------        --1--8----7-----|

Middle Bit
E]-----------------------------------------|
B]-----------------------------------------|
G]-----------------------------------------|
D]-----------------------------------------|
A]--5/6/7/8 --3---8---10-------------------|
E]--3/4/5/6---1---6---8--------------------|
Comments