Datsuns - Blacken My Thumb Chords & Tabs

 

Blacken My Thumb Chords & Tabs

Datsuns Chords & Tabs

Version: 3 Type: Tab 0 ratings
1 star 2 stars 3 stars 4 stars 5 stars
comments

Blacken My Thumb Tab

Artist - The Datsuns
Album - Outta Sight/Outta Mind
Song - Blacken my Thumb

one of the best off outta sight/outta mind, here we go....

standard tuning.

INTRO - clean
E|-------------------------|------------------------|
B|-------------------------|------------------------|
G|-------------------------|------------------------|
D|-5-----------------------|-5----------------------| x 2
A|-------------------5-4-3-|------------------5-4-3-|
E|---33333333333333--------|---33333333333333-------|


Then bass and drums come in together on the last -5-4-3-
VERSE -  Distortion, DS1 or OD-2
E|-------------------------|------------------------|
B|-------------------------|------------------------|
G|-------------------------|------------------------|
D|-5-----------------------|-5----------------------| 
A|-------------------5-4-3-|------------------5-4-3-|
E|---33333333333333--------|---33333333333333-------|
							x2
E|-------------------------|------------------------|
B|-------------------------|------------------------|
G|-------------------------|------------------------|
D|-3-----------------------|-5----------------------| 
A|-------------------3-2-1-|------------------5-4-3-|
E|---11111111111111--------|---33333333333333-------|



CHORUS - Distortion
E|-------------------------|-------------------------|
B|-------------------------|-------------------------|
G|-------------------------|-------------------------|
D|----5-8---7-10-----------|---5-8---7-10------------|
A|-/6-----8-----10\--------|-/6----8------10\--------|
E|-------------------333333|------------------333333-|
[ Tab from: http://www.guitartabs.cc/tabs/d/datsuns/blacken_my_thumb_tab_ver_3.html ]
E|-------------------------|-------------------------|
B|-------------------------|-------------------------|
G|-------------------------|-------------------------|
D|----5-8---7-10-----------|-------7---7--5----------|
A|-/6-----8-----10\--------|---5-8---8---------------|
E|-------------------333333|-/6---------------3333---|

VERSE

CHORUS

SOLO 1 - goes something like this but im not sure about the 
	last bar each time
E|---------------|---------------|-----------------|--------------|
B|--8------------|--8------------|-10---11---13----|--------------|
G|--10^----------|--10^----------|-12^--13^--15^---|--------------|x2 
D|---------------|---------------|-----------------|--------------|
A|---------------|---------------|-----------------|--------------|
E|---------------|---------------|-----------------|--------------|

INTERLUDE - im not sure on this bit but it just sounds like a play on
	    octaves, somehting like this
E|---------------|
B|---------------|
G|----7-----7----| 
D|---------------|
A|--5-----5------|
E|---------------|

CHORUS

SOLO 2 
E|---------------|---------------|
B|--8------------|--6------10----|
G|--10^----------|--8^-----12^---|x3 
D|---------------|---------------|
A|---------------|---------------|
E|---------------|---------------|

End the last part of the solo on this
E|---------------|
B|---6-----------|
G|---8^----------|
D|---------------|
A|---------------|
E|---------------|


ENDING - whoa you blacken my thumb! blacken my thumb!
E|-----------|-----------|------------|-------------|
B|-----------|-----------|------------|-------------|
G|-----------|-----------|------------|-------------|
D|-----------|-----------|------------|-------------|
A|--10-9-8---|--10-9-8---|------------|-------------|
E|---------6-|---------8-|---6-5-4--3-|-33333333333-|

thats it guys, hope its all sweet. sound right 2 me. please rate
Comments