Datsuns - Blacken My Thumb Chords & Tabs

 

Blacken My Thumb Chords & Tabs

Datsuns Chords & Tabs

Version: 1 Type: Tab 0 ratings
1 star 2 stars 3 stars 4 stars 5 stars
comments

Blacken My Thumb Tab

Band - The Datsuns
Song - Blacken my Thumb
Album - Outta Sight/Outta Mind
Tuning - Standard

Notes - Kickass song, the first off the Second Record from The Datsuns.Pretty Weak
Solo in this track they usually do better.


Intro

e:---------:
b:---------:
g:---------:
d:-5-------:
a:-5--x16--:
E:-3-------:


Verse

e:--------------------------------------------------:
b:--------------------------------------------------:
g:-------------------------------------------8------:
d:-5-----------5-5-----------3-3-----------1-8-x12--:
a:-5--x12-5-4-3--5--x12-5-4-3--3--x12-3-2-1--6------:
E:-3-------------3-------------1--------------------:


Chorus

"And it makes me Smile..."
[ Tab from: http://www.guitartabs.cc/tabs/d/datsuns/blacken_my_thumb_tab.html ]
e:--------------------------------------------------------------:
b:--------------------------------------------------------------:
g:--------------------------------------------------------------:
d:--5-8-7-10---5-5-5-5-5-5------------------5-8--0-8-5-5-5-5-5--:
a:-6---8----10-5-5-5-5-5-5--x3-ends on--5/6---8--------5-5-5-5--:
E:-------------3-3-3-3-3-3-----------------------------3-3-3-3--:


Solo

"Hey!"

e:-------------------------------------------:
b:--8~~-6~~-10~~--8~~--x2--ends on--6~~-4~~--:
g:-10^~-8^~-12^~-10^~---------------8^~-6^~--:
d:-------------------------------------------:
a:-------------------------------------------:
E:-------------------------------------------:


Final Riff

"Blacken My Thumb!"

e:-------------------------------------:
b:-------------------------------------:
g:-------------------------------------:
d:--------8~--------10~--------5-------:
a:-10-9-8-8~-10-9-8-10~-10-9-8-5--x12--:
E:--------6~--------8~~--------3-------:

Any Suggestions....Doms_BeerCo@Hotmail.com
Comments