Dashboard Prophets - Ballad For Dead Friends Chords & Tabs

 

Ballad For Dead Friends Chords & Tabs

Dashboard Prophets Chords & Tabs

Version: 1 Type: Tab 0 ratings
1 star 2 stars 3 stars 4 stars 5 stars
comments

Ballad For Dead Friends Tab

   
Dashboard Prophets - Ballad for dead friends
Album: Burning out the inside
Tuning: Standard
Tabbed by: Hugo Rios
E-mail: Hugo12686@msn.com

Note:  I'm pretty sure it 100% correct. I gave you the times to play each figure, 
it really shouldn't be that hard. Enjoy!

Chords:
B5:  799xxx	G#5: 466xxx	C5:  8/10xxxx
E5:  022xxx	A:  577xxx     E:  12/14xxxx
G#:  16/18xxxx	  B:  x244xx

Guitar 1 (fig 1) {0:00}
e|---------------------------------------|
B|---------------------------------------|
G|---------------------------------------|
D|-6-6-6-6-6-6-6-6/9-9-9-2-2-2-2-2-2-2-2-|
A|-6-6-6-6-6-6-6-6/9-9-9-2-2-2-2-2-2-2-2-|
E|-4-4-4-4-4-4-4-4/7-7-7-0-0-0-0-0-0-0-0-|

Guitar 2 (fig 1) {0:08}
e|---------------------------------------------|
B|---------------------------------------------|
G|---------------------------------------------|
D|---------------------------------------------|
A|-/11b-11b-11b-11b-11b-9-9-9-9-7-7-7-7-6/2----|
E|------------------------------------------4--|

Guitar 2 (fig 2) {0:41, 1:40}
e|---------------------------------------------------|
B|---------------------------------------------------|
G|---------------------------------------------------|
D|-6-6-6-6-6-----------------------------------------|
A|-6-6-6-6-6-3h6-6-6-6-6-6-2-2-2-2-2-2-2/7-7-7/11-11-|
E|-4-4-4-4-4-----------------------------------------|

Guitar 2 (fig 3) {0:57, 1:57}
e|-----------------------------------------------|
B|-----------------------------------------------|
G|---------------------------------------7-7-7-7-|
D|-6-6-6-6-6-----------------------------7-7-7-7-|
A|-6-6-6-6-6-3h6-6-6-6-6-6-2-2-2-2-2-2-2-5-5-5-5-|
E|-4-4-4-4-4-------------------------------------|

Guitar 1 (fig 2) {0:16}
e|---------------------------------------------|
B|---------------------------------------------|
G|---------------------------------------------|
D|-10-10-10-10-9-9-9-9-14-14-14-14-16-16-16-16-|
A|-10-10-10-10-9-9-9-9-14-14-14-14-18-18-18-18-|
E|--8--8--8--8-7-7-7-7-12-12-12-12-16-16-16-16-|

Guitar 1 (fig 3) {2:39}
e|-----------------------|
B|-----------------------|
G|-----------------------|
D|-----------------------|
A|-----------------------|
E|-0-7-0-7-0-7-0-7-0-3-3-|

Guitar 1 (fig 4) {2:45}
e|-----------------------|
B|-----------------------|
G|-----------------------|
D|---9-9-9-9-9-9-9-9-5-5-|
A|---9-9-9-9-9-9-9-9-5-5-|
E|-0-7p0-7p0-7p0-7p0-3-3-|
[ Tab from: http://www.guitartabs.cc/tabs/d/dashboard_prophets/ballad_for_dead_friends_tab.html ]
Guitar 1 (fig 5) {1:06, 2:05, 3:26}
e|---------------------------------|
B|---------------------------------|
G|-4-4-4-4---------2-2-2-2---------|
D|-4-4-4-4-5-5-5-5-2-2-2-2-2-2-2-2-|
A|-2-2-2-2-5-5-5-5-0-0-0-0-2-2-2-2-|
E|---------3-3-3-3---------0-0-0-0-|

Guitar 2 (fig 4: solo) {3:05}
e|------------------------------------------------|
B|------------------------------------------------|
G|------------------------------------------------|
D|------------------------------------------------|
A|------------------------------------------------|
E|-/13-13-13-13-12-10-7-7-7-7-8-7-7-7-7-8-7-7-7-7-|

Guitar 2 (fig 5: solo [continued]) {3:16}
e|-----------------------------------------------------|
B|-----------------------------------------------------|
G|-----------------------------------------------------|
D|-----------------------------------------------------|
A|-/14-14-14-14-12-10-9-9-9-9-10-9-9-9-9-7-5-2-2-2-2-3-|
E|-----------------------------------------------------|

Guitar 2 (fig 6) {3:26}
e|-------------------------------------------------|
B|-------------------------------------------------|
G|-11-11-12-11-11-11-12-11-11-11-12-11-14-14-14-14-|

B|-------------------------------------------0-|<-- let it ring...
G|-11-11-12-11-11-11-12-11-11-11-12-11---------|
D|-------------------------------------12-11---|

Guitar 1 (fig 6) {4:00}
e|---|
B|---|
G|-4-|
D|-4-|
A|-2-|
E|---|

+++++++++++++++++++++++++++++++++++++++++++++++++++++++++++

How are you feelin' 
Do you feel okay 
'Cause I don't 
It keeps me reelin' 
Will I ever be the same 
No I won't 

It's a cold day in a cruel world 
I really wished I could have saved you 
Then who would have saved me from myself 
Right now, well, I could use a stiff drink 
To kill the pain that's deep inside my bones 

Have you been dreamin' 
I don't dream at all 
I have nightmares 

Memories careenin' 
Have you come to kill what's left 
Of my smile 

There's no vacancy in paradise 
I really wished I could have saved you 
Then who would have saved me from myself 
Right now, well, I could use a stiff drink 
Kill the pain that's deep inside my bones 
I really wished I could have saved you 
Then who would have saved me from myself 
I really wished I could have saved you 

I'll never forget you 
I'll never forget you 
I'll never forget you 
I'll never forget you 

I really wished I could have saved you 
I really wished I could have saved you 
I really wished I could have saved you 
I really wished I could have saved you
Comments