Dashboard Confessional - Vindicated Chords & Tabs

 

Vindicated Chords & Tabs

Dashboard Confessional Chords & Tabs

Version: 7 Type: Tab 0 ratings
1 star 2 stars 3 stars 4 stars 5 stars
comments

Vindicated Tab

   
                            
                              -------------------------
                                     Vindicated
                              By Dashboard Confessional
                              -------------------------

Tuning (Eb, Bb, Gb, Db, Ab, Eb)

Intro:
|---0---0---0---0---0---0---0--|
|---0---5*--0---0---0---0---0--|
|---1---6---4---2---1-/-4-\-2--|  Play 2x
|---2---6---4---2---2-/-6-\-4--|
|---0---0---0---0---0---0---0--|
[ Tab from: http://www.guitartabs.cc/tabs/d/dashboard_confessional/vindicated_tab_ver_7.html ]
Verse:  (palm muted)
|------------------|
|------------------|
|---9---9----------|  Play 2x
|---9---9---9---7--|
|---7---x---9---7--|
|-------9---7---5--|

Chorus:
|--0---0---0---0--|
|--0---0---5---0--|
|--1---2---6---4--|  Play 2x
|--2---2---6---4--|
|--2---0---4---2--|
|--0---0---0---0--|

Bridge:
|--0---0---0---0--|
|--0---5---0---0--|
|--2---6---4---2--|  Play 2x
|--2---6---4---2--|
|--0---4---2---0--|
|--0---0---0---0--|

Outro:
|--0---0---0---0--|
|--0---5---0---0--|
|--1---6---4---2--|  Play 2x
|--2---6---4---2--|
|--2---4---2---0--|
|--0---0---0---0--|

End:
|-------------|
|-------------|
|--9---9------|
|--9---9---9--|
|--7---x---9--|
|------9---7--|

Order of Song:
Intro
Verse 
Chorus
Verse
Churus
Bridge
Outro
Chorus
End

This is a great song.  I hope you enjoy it!
Comments