Dashboard Confessional - Vindicated Chords & Tabs

 

Vindicated Chords & Tabs

Dashboard Confessional Chords & Tabs

Version: 6 Type: Tab 0 ratings
1 star 2 stars 3 stars 4 stars 5 stars
comments

Vindicated Tab

This is "Vindicated" by Dashboard Confessional off of the Spider-man2 Soundtrack.
If you don't have the CD or haven't seen the movie, I recommend you go see it or
get the CD.

Normal Tuning

~ Let the notes ring out

Intro: X2
|-------------------------------------------------------------------------------|
|---8888888888--6666666--4--6666666--8--444444--6--4----------------------------| 
|-------------------------------------------------------------------------------|
|-------------------------------------------------------------------------------|
|-------------------------------------------------------------------------------|
|-------------------------------------------------------------------------------|

Verse: X2
|--------------------------------6~ ---------|
|--------------------------------6~ ---------|
|---8~ --------------------------7~ ---------|
|---8~ --XX--10~ --XX---8~ --XX--8~ --XX-----|
|---6~ --XX--10~ --XX---8~ --XX--8~ --XX-----|
|------- XX---8~ --XX---6~ --XX--6~ --XX-----|

Chorus: X2
|-----------------------6--------------------|
|-----------------------6--------------------|
|---8-------------------7--------------------|
|---8-X8---10-----8-----8---X8---------------|
|---6------10-X8--8-X8- 8--------------------|
|-----------8-----6-----6--------------------|

Verse 2: X2
|-------------------6~ -----------------------------|
|-------------------6~ -----------------------------|
|---8~ -------------7~ -----------------------------|
|---8~ --10~ --8~ --8~ -----------------------------|
|---6~ --10~ --8~ --8~ -----------------------------|
|---------8~ --6~ --6~ -----------------------------|

Chorus 2: X2
|-----------------------6---------6--------|
|-----------------------6---------6--------|
|---8-------------------7---------7--------|
|---8-X8---10-----8-----8---X8----8--X8----|
|---6------10-X8--8-X8- 8---------8--------|
|-----------8-----6-----6---------6--------|

Bridge: (So turn, up the corners of your lips...) X2
|-------------------------6------6-6-6---------------|
|-------------------------6------6-6-6---------------|
|---8---------------------7------7-7-7---------------|
|---8-X7--10------8-------8--X7--8-8-8---------------|
|---6-----10--X7--8--X7---8------8-8-8---------------|
|----------8------6-------6------6-6-6---------------|
[ Tab from: http://www.guitartabs.cc/tabs/d/dashboard_confessional/vindicated_tab_ver_6.html ]
Outro: (So let me slip away...) X2
|--------------------------------------------------------------|
|---8888888888--6666666--4--6666666--8--444444--6--4--88888888-| 
|--------------------------------------------------------------|
|--------------------------------------------------------------|
|--------------------------------------------------------------|
|--------------------------------------------------------------|

Last Chorus: X2
|-----------------------6-------------|
|-----------------------6-------------|
|---8-------------------7-------------|
|---8-X8---10-----8-----8---X8--------|
|---6------10-X8--8-X8--8-------------|
|-----------8-----6-----6-------------|

Outro2: (My hope dangles on a string...)
|------------------------------------------------|
|------------------------------------------------|
|---8~ ------------------------------------------|
|---8~ --10~ --8~ -------------------------------|
|---6~ --10~ --8~ -------------------------------|
|---------8~ --6~ -------------------------------|

Lyrics:
Hope dangles on a string
Like slow spinning redemption
Winding in and winding out
The shine of it has caught my eye
And roped me in
So mesmerizing, so hypnotizing 
I am captivated

I am Vindicated
I am selfish
I am wrong
I am right
I swear I'm right
I swear I knew it all along
And I am flawed 
But I am cleaning up so well
I am seeing in me now the things you swore you saw yourself

So clear
Like the diamond in your ring
Cut to mirror your intentions
Oversized and overwhelmed
The shine of which has caught my eye
And rendered me so isoloated, so motivated
I am certain now that

I am Vindicated
I am selfish
I am wrong
I am right
I swear I'm right
I swear I knew it all along
And I am flawed 
But I am cleaning up so well
I am seeing in me now the things you swore you saw yourself


So turn
Up the corners of your lips
Part them and feel my finger tips
Trace the moment, fall forever
Defense is paper thin
Just one touch and I'd be in
Too deep now to ever swim against the current

So let me slip away [3x]
So let me slip against the current 
So let me slip away [4x]

I am Vindicated
I am selfish
I am wrong
I am right
I swear I'm right
I swear I knew it all along
And I am flawed 
But I am cleaning up so well
I am seeing in me now the things you swore you saw yourself

My hope
It dangles on a string
Like slow spinning redemption...


This is my frist tab, so sorry if it isn't very good.
It is a pretty easy song to play. Have Fun.

I updated the tab so now it's not so confusing. I did that on a Mac computer and I don't
know why it came out so messed up. I'm sorry for the confusing-ness. If you have any
comments, feel free to e-mail me at Sharpiesniffer1@yahoo.com.
Comments