Dashboard Confessional - Vindicated Chords & Tabs

 

Vindicated Chords & Tabs

Dashboard Confessional Chords & Tabs

Version: 5 Type: Tab 0 ratings
1 star 2 stars 3 stars 4 stars 5 stars
comments

Vindicated Tab

intro
e-------------------------------|
--------------------------------|
--------------------------------|
---13------10------8------6-----|   x2
---13-x8---10-x8---8-x8---6-x8--|
E--11-------8------6------4-----|


verse
e-------------------------------|
--------------------------------|
--------------------------------|
--13------10------8------6------|x2
--13------10------8------6------|
E-11------8-------6------4------|

[ Tab from: http://www.guitartabs.cc/tabs/d/dashboard_confessional/vindicated_tab_ver_5.html ]
chorus
e------------------------------|
-------------------------------|
-------------------------------|
---13------6-----10-----8------| just listen to the song on how many times
---13-x8---6-x8--10-x8--8-x8---| you have to play this
E--11------4-----8------6------|


the part where it goes "so turn up the corners of your lips.......to ever swim againts 
current" goes like this

e-----------------------------|
------------------------------|
------------------------------|
-----6-----10-----8-----------|
-----6-x8--10-x8--8-x16-------|
E----4------8-----6-----------|

and thats pretty much it
Comments