Dashboard Confessional - Vindicated Chords & Tabs

 

Vindicated Chords & Tabs

Dashboard Confessional Chords & Tabs

Version: 1 Type: Tab 4 ratings
1 star 2 stars 3 stars 4 stars 5 stars
comments

Vindicated Tab

Song:  Vindicated
Artist:  Dashboard Confessional
Album :  Spiderman II
Tuning:  Eb standard
Tabbed by:  airdog4125

Intro: 
eb---0---0---0---0--- 
Bb---0---5---0---0--- 
Gb---1---6---4---2---  x2 
Db---2---6---4---2--- 
Ab---2---4---2---0--- 
Eb---0---0---0---0--- 

Verse: (palm muted) 
eb------------------ 
Bb------------------ 
Gb---9---9---------- 
Db---9---9---9---7--  x2 
Ab---7---x---9---7-- 
Eb-------9---7---5-- 

Chorus: 
[ Tab from: http://www.guitartabs.cc/tabs/d/dashboard_confessional/vindicated_tab.html ]
eb---0---0---0---0--- 
Bb---0---0---5---0--- 
Gb---1---2---6---4---  
Db---2---2---6---4---  x2 
Ab---2---0---4---2--- 
Eb---0---0---0---0--- 

Bridge: 

eb---0---0---0---0--- 
Bb---0---5---0---0--- 
Gb---2---6---4---2--- 
Db---2---6---4---2---  x2 
Ab---0---4---2---0--- 
Eb---0---0---0---0--- 

Outro: 

eb---0---0---0---0--- 
Bb---0---5---0---0--- 
Gb---1---6---4---2--- 
Db---2---6---4---2---  x2 
Ab---2---4---2---0--- 
Eb---0---0---0---0--- 

End: (palm muted) 

eb---------------- 
Bb---------------- 
Gb---9---9-------- 
Db---9---9---9---- 
Ab---7---x---9---- 
Eb-------9---7---- 
Comments