Dashboard Confessional - Vindicated Chords & Tabs

 

Vindicated Chords & Tabs

Dashboard Confessional Chords & Tabs

Version: 1 Type: Bass Tab 0 ratings
1 star 2 stars 3 stars 4 stars 5 stars
comments

Vindicated Bass Tab

-------------------------------------------------------------------------------
			     Dashboard Confessional - Vindicated
-------------------------------------------------------------------------------

Tabbed By : MiltownBass

This song is fun and easy to play once you get used to it.
Please rate!

Tuning: 1/2 Step Down

Intro
  (0:05)
Gb|---------------------------------------------------------------------------|
Db|---------------------------------------------------------------------------|
Ab|-7-7-7-7-7-7-7---4-4-4-4-4-4-4---------------------------------------------|
Eb|---------------4----------------4-7-7-7-7-7-7-7-9-5-5-5-5-5-5-5-3-0-0------|

Gb|---------------------------------------------------------------------------|
Db|---------------------------------------------------------------------------|
Ab|-7-7-7-7-7---4-4-4-4-4-4-4-------------------------------------------------|
Eb|-----------4---------------4-7-7-7-7-7-7-7-9-5-5-5-5-5-5-5-3---------------|

Verse
  (0:27)
Gb|---------------------------------------------------------------------------|
Db|---------------------------------------------------------------------------|
Ab|-----------------4-4-4-4-4-4-4---------------------------------------------|
Eb|-0-0-0-0-0-0-0-4---------------4-7-7-7-7-7-7-7-4-5-5-5-5-5-5-5-5-----------|

Gb|---------------------------------------------------------------------------|
Db|---------------------------------------------------------------------------|
Ab|-----------------4-4-4-4-4-4-4---------------------------------------------|
Eb|-0-0-0-0-0-0-0-4---------------4-7-7-7-7-7-7-7-7-7-7-7-7-7-7-7-7-----------|
[ Tab from: http://www.guitartabs.cc/tabs/d/dashboard_confessional/vindicated_btab.html ]
Chorus
  (0:50)
Gb|---------------------------------------------------------------------------|
Db|---------------------------------------------------------------------------|
Ab|------7-7-----------------4-4-4-4-4---2-2-2-2-2-2-7-7-7-7-7-7--------------|
Eb|-0--0-----0-3-5-5-5-3-5-7-----------4--------------------------------------|

Gb|---------------------------------------------------------------------------|
Db|---------------------------------------------------------------------------|
Ab|-------------4-4-4-4-4---2-2-2-2-2-2---------------------------------------|
Eb|-5-5-5-3-5-7-----------4---------------------------------------------------|

Verse (1:11) End on A-7
Chorus (1:34) Keep hitting A-2 till bridge

Bridge
  (1:59)
Gb|---------------------------------------------------------------------------|
Db|---------------------------------------------------------------------------|
Ab|--------------4--4--4--4---2-2-2-2-----------------------------------------|
Eb|-5--5--5--5-7------------4---------4-5-5-5-5-7-5--5--5--5-7----------------|

Gb|---------------------------------------------------------------------------|
Db|---------------------------------------------------------------------------|
Ab|-4--4--4--4---2-2-2-2-2-2-2------------------------------------------------|
Eb|------------4--------------------------------------------------------------|


Gb|---------------------------------------------------------------------------|
Db|---------------------------------------------------------------------------|
Ab|-7-7-7-7-7-7-7---4-4-4-4-4-4-4---------------------------------------------|
Eb|---------------4---------------4-7-7-7-7-7-7-7-9-5-5-5-5-5-5-5-3-0-0-------|

Gb|---------------------------------------------------------------------------|
Db|---------------------------------------------------------------------------|
Ab|-7-7-7-7-7---4-4-4-4-4-4-4-------------------------5/1212121212121212\-----|
Eb|-----------4---------------4-7-7-7-7-7-7-7-9-5-5-5-------------------------|

Chorus (2:44) End on A-7




| /  slide up
| \  slide down
===============================================================================
Comments