Dashboard Confessional - Vindicated Acoustic Chords & Tabs

 

Vindicated Acoustic Chords & Tabs

Dashboard Confessional Chords & Tabs

Version: 1 Type: Tab 0 ratings
1 star 2 stars 3 stars 4 stars 5 stars
comments

Vindicated Acoustic Tab

   
-------------------------------------------------------------------------------
			     Vindicated Acoustic -
                            Dashboard Confesssional
-------------------------------------------------------------------------------
Tabbed by: Tj
Email:

Tuning: Eflat tuning (1/2 step down)
Intro
e|----0------4------2------0---0---0---0--------------------------------------------|
B|----0------4------2------0---0---0---0--------------------------------------------|
G|----1------6------4------2---1---4---2--------------------------------------------|
D|----2------6------4------2---2---6---4--------------------------------------------|
A|----2------4------2------0---0---0---0--------------------------------------------|
E|----0------x------x------x---x---x---x--------------------------------------------|


Verse - Palm Muted LIGHTLY
e|-------------------------------------------------------------------------------------|
B|-------------------------------------------------------------------------------------|
G|----9----9----9-------------9------9-----9---9---------------------------------------|
D|----9----9----9----9--------9------9-----9---9---------------------------------------|
A|----7----x----x----7--------7------x-----x---x---------------------------------------|
E|---------9----7----5---------------9-----7---7---------------------------------------|
[ Tab from: http://www.guitartabs.cc/tabs/d/dashboard_confessional/vindicated_acoustic_tab.html ]
Chorus - Strummed
e|----0-----0-----0----0---------------------------------------------------------|
B|----0-----0-----0----0---------------------------------------------------------|
G|----1-----4-----6----4---------------------------------------------------------|
D|----2-----2-----6----4---------------------------------------------------------|
A|----2-----0-----4----2---------------------------------------------------------|
E|----0-----x-----x----x---------------------------------------------------------|

Verse 2 - Same as Verse 1 - except last chord is changed to

e|-----2-------------------------------------------|
B|-----2-------------------------------------------|
G|-----2-------------------------------------------|
D|-----2---------------  LET IT RING UNTIL CHORUS--|
A|-----0-------------------------------------------|
E|-----0-------------------------------------------|


Repeat Chorus


Bridge - "So turn, up the corners of your lips - bite them..."

e|-----0------x----x----0----0----0---0-------0----x----x------------------------|
B|-----0------x----x----0----0----0---0-------0----x----x------------------------|
G|-----2------6----4----2----1----4---2-------2----6----4------------------------|
D|-----2------6----4----2----2----6---4-------2----6----4------------------------|
A|-----0------4----2----0----0----0---0-------0----4----2------------------------|
E|-----x------x----x----x----x----x---x-------x----x----x------------------------|


Repeat Intro during "so let me slip away"
Then back into chorus

Then to the final "verse"
PALM MUTED LIGHTLY
"like hope...dangles on a string..."
|--------------------------------------------------------------------------------|
B|-------------------------------------------------------------------------------|
G|---9-------9-----9-------------------------------------------------------------|
D|---9-------9-----9-------------------------------------------------------------|
A|---7-------x-----7-------------------------------------------------------------|
E|-----------9-----7-------------------------------------------------------------|

| /  slide up
| \  slide down
| h  hammer-on
| p  pull-off
| ~  vibrato
| +  harmonic
| x  Mute note
===============================================================================
Comments