Dashboard Confessional - Turpentine Chaser Chords & Tabs

 

Turpentine Chaser Chords & Tabs

Dashboard Confessional Chords & Tabs

Version: 2 Type: Tab 0 ratings
1 star 2 stars 3 stars 4 stars 5 stars
comments

Turpentine Chaser Tab

Dashboard Confessional - Turpentine Chaser
By:Andrew Mcshan(Guitarguyx182)
Verse
-0--4--7--0--0
-0--0--0--0--0
-0--0--0--0--0
-0--4--7--0--0
-0--0--0--9--7
-0--0--0--9--7
[ Tab from: http://www.guitartabs.cc/tabs/d/dashboard_confessional/turpentine_chaser_tab_ver_2.html ]
----0--0-----0-----
----0--0-----0-----
----0--0-----0-----
-0--0--0--0--0--0-- 
-0--0--0--0--0--0-- 
-0--5--4--0--5--4-- 
Chorus
-0--0--0--0--0--0--0--0--0--0--0--0--0--0--0--0 
-0--0--0--0--0--0--0--0--0--0--0--0--0--0--0--0 
-0--0--0--2--0--0--0--2--0--0--0--2--0--0--0--2 
-0--0--0--2--0--0--0--2--0--0--0--2--0--0--0--2 
-0--3--2--0--0--3--2--0--0--2--3--0--0--3--2--0 
-0--0--0--0--0--0--0--0--0--0--0--0--0--0--0--0 
Outro
-0--4--7--0--0----
-0--0--0--0--0----
-0--0--0--0--0-x4-
-0--4--7--0--0----
-0--0--0--9--7----
-0--0--0--9--7----
"The frightening facts..." 
-0--7--4--0--0----
-0--0--0--0--0----
-0--0--0--0--0-x4-
-0--7--4--0--0----
-0--0--0--9--7----
-0--0--0--9--7----
"Broken Homes"

This paint has been tasting of lead
& their chips will fall as they may,
but it's not just my finish that is peeling,
& it is not alone fleeing these walls.

Well sooner of later this cold
it's gonna break
& our hands will be warm again,
but all I want is not to need you now.
And sooner or later this cold
it's gonna break
& our words will be heard again,
but all I want are vows of silence now.

This turpentine chaser's got kick
& the rag that it's soaked in is rich.
The fumes aide the pace of my cleaning
& as soon as I'm done I am gone.

The frightening facts
we've been facing our backs
for so long now
are begging for eyes
to bear witness to lies
& indifference.

Now we're saying aloud
the things we've declared in our silence.
The new coats of paint will not reaquaint
broken hearts to broken homes
Comments