Dashboard Confessional - Turpentine Chaser Chords & Tabs

 

Turpentine Chaser Chords & Tabs

Dashboard Confessional Chords & Tabs

Version: 1 Type: Tab 1 rating
1 star 2 stars 3 stars 4 stars 5 stars
comments

Turpentine Chaser Tab

   
Intro & Verse: 

Db:|-0--0-0--0-0-| 
Db:|-0--0-0--0-0-| 
Db:|-0--4s7--4s2-| 
Db:|-0--4s7--4s2-| 
Ab:|-0--0-0--2-0-| 
Db:|-0--0-0--0-0-| 


Prechorus 
Db:|-0--0--0--0--0--0--0--0--0--0--0-| 
Db:|-0--0--0--0--0--0--0--0--0--0--0-| 
Db:|-0--0--0--0--0--0--0--0--0--0--0-| 
Db:|-0--5--4--0--5--4--0--5--4--0--5-| 
Ab:|-0--0--0--0--0--0--0--0--0--0--0-| 
Db:|-0--5--4--0--5--4--0--5--4--0--5-| 


Chorus - 2x 

Db:|-0---0---0---0-| 
Db:|-0---0---0---0-| 
Db:|-7---0---4---2-| 
Db:|-4---5---4---2-| 
Ab:|-5---3---2---0-| 
Db:|-0---0---0---0-| 
[ Tab from: http://www.guitartabs.cc/tabs/d/dashboard_confessional/turpentine_chaser_tab.html ]
Db:|-0---0---0---0-| 
Db:|-0---0---0---0-| 
Db:|-7---0---4---2-| 
Db:|-4---5---4---2-| 
Ab:|-5---3---2---0-| 
Db:|-0---0---0---0-| 

Db:|-0---0---0---0-| 
Db:|-0---0---0---0-| 
Db:|-7---0---0---7-| 
Db:|-4---5---0---7-| 
Ab:|-5---2---5---0-| 
Db:|-0---0---5---0-| 

Db:|-0---0---0---0-| 
Db:|-0---0---0---0-| 
Db:|-7---0---4---2-| 
Db:|-4---5---4---2-| 
Ab:|-5---3---2---0-| 
Db:|-0---0---0---0-| 



BRIDGE: 

Db:|-7---5---4---0---4---7---7s9---5-| 
Db:|-0---0---0---0---0---0---0-----0-| 
Db:|-0---0---0---0---0---0---0-----0-| 
Db:|-0---0---0---0---0---0---0-----0-| 
Ab:|-0---0---0---0---x---x---x-----x-| 
Db:|-0---0---0---0---4---7---7s9---5-| 

END ON: 

Db:|-0-| 
Db:|-0-| 
Db:|-0-| 
Db:|-0-| 
Db:|-0-| 
Db:|-0-|
Comments