Dashboard Confessional - This Ruined Puzzle Chords & Tabs

 

This Ruined Puzzle Chords & Tabs

Dashboard Confessional Chords & Tabs

Version: 4 Type: Tab 0 ratings
1 star 2 stars 3 stars 4 stars 5 stars
comments

This Ruined Puzzle Tab

Band - Dashboard Confessional
Song - This Ruined Puzzle

Tuning: standard

Verse:
e|------------------------------------------|
B|------------------------------------------|
G|-----11--------6------8-----4-------------|
D|-----11--------6------8-----4-------------|
A|------9--------4------6-----2-------------|
E|------------------------------------------|
[ Tab from: http://www.guitartabs.cc/tabs/d/dashboard_confessional/this_ruined_puzzle_tab_ver_4.html ]
Prechorus:
e|------------------------------------------|
B|------------------------------------------|
G|------11------13---18---16---15--13---18--|
D|------11------13---16---16---16--16---16--|
A|-------9------11---14---14---14--14---14--|
E|------------------------------------------|

Chorus:
e|------------------------------------------|
B|------------------------------------------|
G|-----------8----4-------------------------|
D|-----4-----8----4-------------------------|
A|-----4-----6----2-------------------------|
E|-----2------------------------------------|

e|------------------------------------------|
B|------------------------------------------|
G|------------6-----4-----------------------|
D|------4-----6-----4-----------------------|
A|------4-----4-----2-----------------------|
E|------2-----------------------------------|
Comments