Dashboard Confessional - This Ruined Puzzle Chords & Tabs

 

This Ruined Puzzle Chords & Tabs

Dashboard Confessional Chords & Tabs

Version: 2 Type: Tab 0 ratings
1 star 2 stars 3 stars 4 stars 5 stars
comments

This Ruined Puzzle Tab

Dashboard Confessional - This Ruined Puzzle
By:Andrew (Guitarguyx182@belg88.com)


Tuned Half A Step Down

Verse
eb|--------------------------------------------0-------8-8-8------------------|
Bb|------------------------------------------0---0-----8-8-8------------------|
Gb|-2-2-2-4-4-4-2-2-2-------------2-2-2---2--------2---7-7-7------------------|
Db|-2-2-2-2-2-2-1-1-1-1-1-1-2-2-2-2-2-2-1-------------------------------------|
Ab|-3-3-3-3-3-3-2-2-2-2-2-2-3-3-3-3-3-3---------------------------------------|
Eb|---------------------------------------------------------------------------|

eb|-10-10-12-12---------------------------------------------------------------|
Bb|-10-10-12-12-15-15-13-13-12-12-10-10--15-15--------------------------------|
Gb|--0--0--0--0---------------------------------------------------------------|
Db|--9--9-11-11-13-13-13-13-12-12-11-11---------------------------------------|
Ab|-10-10-12-12--------------------------15-15--------------------------------|
Eb|---------------------------------------------------------------------------|
[ Tab from: http://www.guitartabs.cc/tabs/d/dashboard_confessional/this_ruined_puzzle_tab_ver_2.html ]
Chorus
eb|-3-3--8-8--3-3--3-3--2-2--3-3----------------------------------------------|
Bb|-3-3--8-8--3-3--3-3--3-3--3-3----------------------------------------------|
Gb|-0-0--0-0--0-0--0-0--2-2--0-0----------------------------------------------|
Db|-0-0--7-7--2-2--0-0-------2-2----------------------------------------------|
Ab|-2-2--8-8--3-3--2-2-------3-3----------------------------------------------|
Eb|-3-3------------3-3--------------------------------------------------------|

This ruined puzzle is beige with the pieces all face down
so the placing goes slowly.
The pictures of anything other than it's meant to be.
But the hours they creep,
the patterns repeat.
Don't be concerned, you know I'll be fine on my own.
I never said "don't go".

I've written a note,
it's pressed between pages
that you've marked to find your way back.
It says "Does he ever get the girl?"
But what if the pages stay pressed,
the chapters unfinished,
the stories too dull to unfold?
Does he ever get the girl?

This basement's a coffin
I'm buried alive.
I'll die in here just to be safe.
I'll die in here just to be safe.
'Cause you're gone
I get nothing
and you're off with barely a sigh.
I never said "Good-bye"

Does he ever get the girl?
Comments