Dashboard Confessional - This Old Wound Chords & Tabs

 

This Old Wound Chords & Tabs

Dashboard Confessional Chords & Tabs

Version: 1 Type: Tab 0 ratings
1 star 2 stars 3 stars 4 stars 5 stars
comments

This Old Wound Tab

Dashboard Confessional - This Old Wound
By:Andrew Mcshan and Garbo(From Dashtabs)

Capo 3
[ Tab from: http://www.guitartabs.cc/tabs/d/dashboard_confessional/this_old_wound_tab.html ]
Intro/Verse:
e|---------------------------------------------------------------------------| 
B|-------3-------3------3-------3--------3-5-3------3------3------3--------8-|
G|-----0-------0------0------0---------0----------0------0------0--------0---|
D|---0-------0------0-------0-------0-----------0------0------0-------0------|
A|---------------------------------------------------------------------------|
E|-3-------0------1-------3------3------------3------0------1-------3--------|
    
Chorus    
e|--3--------------------0--------------|
B|--0--------------------5--------------|
G|--0-----------------0--0--------------|
D|--0--0--0--0-----0--2--4--0-----------|
A|--2--0--x--0-----2--3--5--0-----------| 
E|--3-/5-/7-\2-----3--------2-----------|
Comments