Dashboard Confessional - This Bitter Pill Chords & Tabs

 

This Bitter Pill Chords & Tabs

Dashboard Confessional Chords & Tabs

Version: 5 Type: Tab 0 ratings
1 star 2 stars 3 stars 4 stars 5 stars
comments

This Bitter Pill Tab

   
This Bitter Pill
Dashboard Confessional
By : Toshio

Eb Ab Db Gb Bb Eb

Intro/Verse

eb:|--------|-0----0----0----0----| 
Bb:|--------|-0----0----0----0----| 
Gb:|-4h5-4-0|-0----0----4----2----|  X 3
Db:|-0---0-0|-2----4----0----0----| 
Ab:|-5---5-5|-3----5----5----3----| 
Eb:|--------|---------------------|


Pre-Chorus

eb:|--------|-0----0----0----0----| 
Bb:|--------|-0----0----0----0----| 
Gb:|-4h5-4-0|-0----0----4----0----|  X 1
Db:|-0---0-0|-2----4----0----0----| 
Ab:|-5---5-5|-3----5----5----5----| 
Eb:|--------|---------------------|


Chorus

eb:|--3--X--X--X----| 
Bb:|--3--7--5--7----| 
Gb:|--0--7--0--7----|  X 2
Db:|--0--0--7--0----| 
Ab:|--2--0--7--0----| 
Eb:|--3--X--X--X----|


eb:|--0--X--0--0----| 
Bb:|--0--7--0--0----| 
Gb:|--5--7--4--0----|  X 1
Db:|--7--0--0--0----| 
Ab:|--7--0--5--5----| 
Eb:|--X--X----------|


Intro/Verse X 3
Pre-Chorus  X 1


2nd Chorus
[ Tab from: http://www.guitartabs.cc/tabs/d/dashboard_confessional/this_bitter_pill_tab_ver_5.html ]
eb:|--3--X--X--X----| 
Bb:|--3--7--5--7----| 
Gb:|--0--7--0--7----|  X 2
Db:|--0--0--7--0----| 
Ab:|--2--0--7--0----| 
Eb:|--3--X--X--X----|


eb:|--0--X--| 
Bb:|--0--7--| 
Gb:|--5--7--|  X 1
Db:|--7--0--| 
Ab:|--7--0--| 
Eb:|--X--X--


Outro (Screaming/Crying Part)(Not too sure on this part, this is what i do)


eb:|--0--0--0--0--0-| 
Bb:|--0--0--0--0--0-| 
Gb:|--0--0--0--0--0-|
Db:|--2--4--5--4--5-| 
Ab:|--3--3--3--3--3-| 
Eb:|--X--X--X--X--X-|
            ^
 (Hold this note longer)

eb:|--X---X---X-----| 
Bb:|--5---7---5-----| 
Gb:|--0---7---0-----|  
Db:|--7---0---7-----| 
Ab:|--7---0---7-----| 
Eb:|--X---X---X-----| 

eb:|--0--0--0--0--0-| 
Bb:|--0--0--0--0--0-| 
Gb:|--0--0--0--0--0-|
Db:|--2--4--5--4--5-| 
Ab:|--3--3--3--3--3-| 
Eb:|--X--X--X--X--X-|
            ^

eb:|--X---------------3---| 
Bb:|--7---------------3---| 
Gb:|--7--- End on ----0---|
Db:|--0---------------0---| 
Ab:|--0---------------2---| 
Eb:|--X---------------3---|
Comments