Dashboard Confessional - This Bitter Pill Chords & Tabs

 

This Bitter Pill Chords & Tabs

Dashboard Confessional Chords & Tabs

Version: 4 Type: Tab 0 ratings
1 star 2 stars 3 stars 4 stars 5 stars
comments

This Bitter Pill Tab

   
Band - Dashboard Confessional
Song - This Bitter Pill

Tuning: eb Bb Gb Db Ab eb
Tune 1/2 step down.

Intro
eb|-----------|
Bb|-----------|
Gb|--4h5-4-2--|
Db|--0---0-0--|
Ab|-----------|
Eb|-----------|

Verse:
eb|-------------------------------------------------------------------|
Bb|-------------------------------------------------------------------|
Gb|----------------------------------4--4-4--4--4-4----------4h5-4-2--|
Db|--5--5-5--5--5-5--4--4-4--4--4-4--5--5-5--5--5-5--7--7-7--0---0-0--|
Ab|--7--7-7--7--7-7--5--5-5--5--5-5------------------3--3-3-----------|
Eb|-------------------------------------------------------------------|

eb|-------------------------------------------------------------------|
Bb|-------------------------------------------------------------------|
Gb|----------------------------------4--4-4--4--4-4----------4h5-4-2--|
Db|--5--5-5--5--5-5--4--4-4--4--4-4--5--5-5--5--5-5--7--7-7--0---0-0--|
Ab|--7--7-7--7--7-7--5--5-5--5--5-5------------------3--3-3-----------|
Eb|-------------------------------------------------------------------|

eb|-------------------------------------------------------------------|
Bb|-------------------------------------------------------------------|
Gb|----------------------------------4--4-4--4--4-4----------4h5-4-2--|
Db|--5--5-5--5--5-5--4--4-4--4--4-4--5--5-5--5--5-5--7--7-7--0---0-0--|
Ab|--7--7-7--7--7-7--5--5-5--5--5-5------------------3--3-3-----------|
Eb|-------------------------------------------------------------------|

eb|------------------------------------------------------------------|
Bb|------------------------------------------------------------------|
Gb|----------------------------------4--4-4--4--4-4--0--0-0--0--0-0--|
Db|--5--5-5--5--5-5--4--4-4--4--4-4--5--5-5--5--5-5--5--5-5--5--5-5--|
Ab|--7--7-7--7--7-7--5--5-5--5--5-5----------------------------------|
Eb|------------------------------------------------------------------|

Chorus:
eb|--3--3-3--3--3-3--3--3-3--3--3-3--2--2-2--2--2-2--2--2-2--2--2-2--|
Bb|--3--3-3--3--3-3--3--3-3--3--3-3--3--3-3--3--3-3--3--3-3--3--3-3--|
Gb|--0--0-0--0--0-0--0--0-0--0--0-0--2--2-2--2--2-2--2--2-2--2--2-2--|
Db|--0--0-0--0--0-0--0--0-0--0--0-0--0--0-0--0--0-0--0--0-0--0--0-0--|
Ab|--x--x-x--x--x-x--x--x-x--x--x-x--0--0-0--0--0-0--0--0-0--0--0-0--|
Eb|--3--3-3--3--3-3--3--3-3--3--3-3----------------------------------|

eb|--0--0-0--0--0-0--0--0-0--0--0-0--2--2-2--2--2-2--2--2-2--2--2-2--|
Bb|--1--1-1--1--1-1--1--1-1--1--1-1--3--3-3--3--3-3--3--3-3--3--3-3--|
Gb|--2--2-2--2--2-2--2--2-2--2--2-2--2--2-2--2--2-2--2--2-2--2--2-2--|
Db|--2--2-2--2--2-2--2--2-2--2--2-2--0--0-0--0--0-0--0--0-0--0--0-0--|
Ab|--0--0-0--0--0-0--0--0-0--0--0-0--0--0-0--0--0-0--0--0-0--0--0-0--|
Eb|------------------------------------------------------------------|

eb|--3--3-3--3--3-3--3--3-3--3--3-3--2--2-2--2--2-2--2--2-2--2--2-2--|
Bb|--3--3-3--3--3-3--3--3-3--3--3-3--3--3-3--3--3-3--3--3-3--3--3-3--|
Gb|--0--0-0--0--0-0--0--0-0--0--0-0--2--2-2--2--2-2--2--2-2--2--2-2--|
Db|--0--0-0--0--0-0--0--0-0--0--0-0--0--0-0--0--0-0--0--0-0--0--0-0--|
Ab|--x--x-x--x--x-x--x--x-x--x--x-x--0--0-0--0--0-0--0--0-0--0--0-0--|
Eb|--3--3-3--3--3-3--3--3-3--3--3-3----------------------------------|

eb|--0--0-0--0--0-0--0--0-0--0--0-0--2--2-2--2--2-2--2--2-2--2--2-2--|
Bb|--1--1-1--1--1-1--1--1-1--1--1-1--3--3-3--3--3-3--3--3-3--3--3-3--|
Gb|--2--2-2--2--2-2--2--2-2--2--2-2--2--2-2--2--2-2--2--2-2--2--2-2--|
Db|--2--2-2--2--2-2--2--2-2--2--2-2--0--0-0--0--0-0--0--0-0--0--0-0--|
Ab|--0--0-0--0--0-0--0--0-0--0--0-0--0--0-0--0--0-0--0--0-0--0--0-0--|
Eb|------------------------------------------------------------------|

eb|--0--0-0--0--0-0--0--0-0--0--0-0--2--2-2--2--2-2--2--2-2--2--2-2--|
Bb|--1--1-1--1--1-1--1--1-1--1--1-1--3--3-3--3--3-3--3--3-3--3--3-3--|
Gb|--2--2-2--2--2-2--2--2-2--2--2-2--2--2-2--2--2-2--2--2-2--2--2-2--|
Db|--2--2-2--2--2-2--2--2-2--2--2-2--0--0-0--0--0-0--0--0-0--0--0-0--|
Ab|--0--0-0--0--0-0--0--0-0--0--0-0--0--0-0--0--0-0--0--0-0--0--0-0--|
Eb|------------------------------------------------------------------|

eb|---------------------------------------------------------------------|
Bb|---------------------------------------------------------------------|
Gb|--4--4-4--4--4-4--4--4-4--4--4-4---0--0-0--0--0-0--0--0-0--4h5-4--2--|
Db|--0--0-0--0--0-0--0--0-0--0--0-0---0--0-0--0--0-0--0--0-0--0---0--0--|
Ab|--x--x-x--x--x-x--x--x-x--x--x-x---x--x-x--x--x-x--x--x-x------------|
Eb|--3--3-3--3--3-3--3--3-3--3--3-3---3--3-3--3--3-3--3--3-3------------|


Verse:
eb|-------------------------------------------------------------------|
Bb|-------------------------------------------------------------------|
Gb|----------------------------------4--4-4--4--4-4----------4h5-4-2--|
Db|--5--5-5--5--5-5--4--4-4--4--4-4--5--5-5--5--5-5--7--7-7--0---0-0--|
Ab|--7--7-7--7--7-7--5--5-5--5--5-5------------------3--3-3-----------|
Eb|-------------------------------------------------------------------|
[ Tab from: http://www.guitartabs.cc/tabs/d/dashboard_confessional/this_bitter_pill_tab_ver_4.html ]
eb|-------------------------------------------------------------------|
Bb|-------------------------------------------------------------------|
Gb|----------------------------------4--4-4--4--4-4----------4h5-4-2--|
Db|--5--5-5--5--5-5--4--4-4--4--4-4--5--5-5--5--5-5--7--7-7--0---0-0--|
Ab|--7--7-7--7--7-7--5--5-5--5--5-5------------------3--3-3-----------|
Eb|-------------------------------------------------------------------|

eb|-------------------------------------------------------------------|
Bb|-------------------------------------------------------------------|
Gb|----------------------------------4--4-4--4--4-4----------4h5-4-2--|
Db|--5--5-5--5--5-5--4--4-4--4--4-4--5--5-5--5--5-5--7--7-7--0---0-0--|
Ab|--7--7-7--7--7-7--5--5-5--5--5-5------------------3--3-3-----------|
Eb|-------------------------------------------------------------------|

eb|------------------------------------------------------------------|
Bb|------------------------------------------------------------------|
Gb|----------------------------------4--4-4--4--4-4--0--0-0--0--0-0--|
Db|--5--5-5--5--5-5--4--4-4--4--4-4--5--5-5--5--5-5--5--5-5--5--5-5--|
Ab|--7--7-7--7--7-7--5--5-5--5--5-5----------------------------------|
Eb|------------------------------------------------------------------|

Chorus:
eb|--3--3-3--3--3-3--3--3-3--3--3-3--2--2-2--2--2-2--2--2-2--2--2-2--|
Bb|--3--3-3--3--3-3--3--3-3--3--3-3--3--3-3--3--3-3--3--3-3--3--3-3--|
Gb|--0--0-0--0--0-0--0--0-0--0--0-0--2--2-2--2--2-2--2--2-2--2--2-2--|
Db|--0--0-0--0--0-0--0--0-0--0--0-0--0--0-0--0--0-0--0--0-0--0--0-0--|
Ab|--x--x-x--x--x-x--x--x-x--x--x-x--0--0-0--0--0-0--0--0-0--0--0-0--|
Eb|--3--3-3--3--3-3--3--3-3--3--3-3----------------------------------|

eb|--0--0-0--0--0-0--0--0-0--0--0-0--2--2-2--2--2-2--2--2-2--2--2-2--|
Bb|--1--1-1--1--1-1--1--1-1--1--1-1--3--3-3--3--3-3--3--3-3--3--3-3--|
Gb|--2--2-2--2--2-2--2--2-2--2--2-2--2--2-2--2--2-2--2--2-2--2--2-2--|
Db|--2--2-2--2--2-2--2--2-2--2--2-2--0--0-0--0--0-0--0--0-0--0--0-0--|
Ab|--0--0-0--0--0-0--0--0-0--0--0-0--0--0-0--0--0-0--0--0-0--0--0-0--|
Eb|------------------------------------------------------------------|

eb|--3--3-3--3--3-3--3--3-3--3--3-3--2--2-2--2--2-2--2--2-2--2--2-2--|
Bb|--3--3-3--3--3-3--3--3-3--3--3-3--3--3-3--3--3-3--3--3-3--3--3-3--|
Gb|--0--0-0--0--0-0--0--0-0--0--0-0--2--2-2--2--2-2--2--2-2--2--2-2--|
Db|--0--0-0--0--0-0--0--0-0--0--0-0--0--0-0--0--0-0--0--0-0--0--0-0--|
Ab|--x--x-x--x--x-x--x--x-x--x--x-x--0--0-0--0--0-0--0--0-0--0--0-0--|
Eb|--3--3-3--3--3-3--3--3-3--3--3-3----------------------------------|

eb|--0--0-0--0--0-0--0--0-0--0--0-0--2--2-2--2--2-2--2--2-2--2--2-2--|
Bb|--1--1-1--1--1-1--1--1-1--1--1-1--3--3-3--3--3-3--3--3-3--3--3-3--|
Gb|--2--2-2--2--2-2--2--2-2--2--2-2--2--2-2--2--2-2--2--2-2--2--2-2--|
Db|--2--2-2--2--2-2--2--2-2--2--2-2--0--0-0--0--0-0--0--0-0--0--0-0--|
Ab|--0--0-0--0--0-0--0--0-0--0--0-0--0--0-0--0--0-0--0--0-0--0--0-0--|
Eb|------------------------------------------------------------------|

eb|--0--0-0--0--0-0--0--0-0--0--0-0--2--2-2--2--2-2--2--2-2--2--2-2--|
Bb|--1--1-1--1--1-1--1--1-1--1--1-1--3--3-3--3--3-3--3--3-3--3--3-3--|
Gb|--2--2-2--2--2-2--2--2-2--2--2-2--2--2-2--2--2-2--2--2-2--2--2-2--|
Db|--2--2-2--2--2-2--2--2-2--2--2-2--0--0-0--0--0-0--0--0-0--0--0-0--|
Ab|--0--0-0--0--0-0--0--0-0--0--0-0--0--0-0--0--0-0--0--0-0--0--0-0--|
Eb|------------------------------------------------------------------|

Outro:
eb|--3--3-3--3--3-3--3--3-3--3--3-3--0--0-0--0--0-0--0--0-0--0--0-0--|
Bb|--3--3-3--3--3-3--0--0-0--3--3-3--0--0-0--0--0-0--0--0-0--0--0-0--|
Gb|--0--0-0--0--0-0--0--0-0--0--0-0--0--0-0--0--0-0--x--x-x--0--0-0--|
Db|--0--0-0--0--0-0--4--4-4--0--0-0--2--2-2--2--2-2--4--4-4--2--2-2--|
Ab|--x--x-x--x--x-x--x--x-x--x--x-x--2--2-2--2--2-2--2--2-2--2--2-2--|
Eb|--3--3-3--3--3-3--3--3-3--3--3-3--0--0-0--0--0-0--0--0-0--0--0-0--|

eb|--0--0-0--0--0-0--0--0-0--0--0-0--2--2-2--2--2-2--2--2-2--2--2-2--|
Bb|--1--1-1--1--1-1--1--1-1--1--1-1--3--3-3--3--3-3--3--3-3--3--3-3--|
Gb|--2--2-2--2--2-2--2--2-2--2--2-2--2--2-2--2--2-2--2--2-2--2--2-2--|
Db|--2--2-2--2--2-2--2--2-2--2--2-2--0--0-0--0--0-0--0--0-0--0--0-0--|
Ab|--0--0-0--0--0-0--0--0-0--0--0-0--0--0-0--0--0-0--0--0-0--0--0-0--|
Eb|------------------------------------------------------------------|

eb|--3--3-3--3--3-3--3--3-3--3--3-3--0--0-0--0--0-0--0--0-0--0--0-0--|
Bb|--3--3-3--3--3-3--0--0-0--3--3-3--0--0-0--0--0-0--0--0-0--0--0-0--|
Gb|--0--0-0--0--0-0--0--0-0--0--0-0--0--0-0--0--0-0--x--x-x--0--0-0--|
Db|--0--0-0--0--0-0--4--4-4--0--0-0--2--2-2--2--2-2--4--4-4--2--2-2--|
Ab|--x--x-x--x--x-x--x--x-x--x--x-x--2--2-2--2--2-2--2--2-2--2--2-2--|
Eb|--3--3-3--3--3-3--3--3-3--3--3-3--0--0-0--0--0-0--0--0-0--0--0-0--|

eb|--0--0-0--0--0-0--0--0-0--0--0-0--2--2-2--2--2-2--2--2-2--2--2-2--|
Bb|--1--1-1--1--1-1--1--1-1--1--1-1--3--3-3--3--3-3--3--3-3--3--3-3--|
Gb|--2--2-2--2--2-2--2--2-2--2--2-2--2--2-2--2--2-2--2--2-2--2--2-2--|
Db|--2--2-2--2--2-2--2--2-2--2--2-2--0--0-0--0--0-0--0--0-0--0--0-0--|
Ab|--0--0-0--0--0-0--0--0-0--0--0-0--0--0-0--0--0-0--0--0-0--0--0-0--|
Eb|------------------------------------------------------------------|

eb|--3--|
Bb|--3--|
Gb|--0--|
Db|--0--|
Ab|--x--|
Eb|--3--|
Comments