Dashboard Confessional - This Bitter Pill Chords & Tabs

 

This Bitter Pill Chords & Tabs

Dashboard Confessional Chords & Tabs

Version: 1 Type: Tab 0 ratings
1 star 2 stars 3 stars 4 stars 5 stars
comments

This Bitter Pill Tab

Dashboard Confessional
This Bitter Pill

EbAbDbGbBbEb

Verse: Play Three Times: "Walking away..." 
Eb|--0---0---0---0---0---0---0--| 
Bb|--0---0---0---0---0---0---0--| 
Gb|--4h5-4---0---0---0---4---2--| 
Db|--0---0---0---2---4---0---0--| 
Ab|--5---5---5---3---5---5---3--| 
Eb|-----------------------------| 


End Of Verse "Swallow, choke.." 

Eb|--0---0---0---0--| 
Bb|--0---0---0---0--| 
Gb|--0---0---4---0--| 
Db|--2---4---0---0--| 
Ab|--3---5---5---5--| 
Eb|-----------------| 



Chorus Play Twice: "And this bitter pill..." 

Eb|--3---x---0---x--| 
Bb|--3---7---5---7--| 
Gb|--0---7---0---7--| 
Db|--0---0---7---0--| 
Ab|--2---0---7---0--| 
Eb|--3-------0------| 


End Of Chorus 
[ Tab from: http://www.guitartabs.cc/tabs/d/dashboard_confessional/this_bitter_pill_tab.html ]
Eb|--0---x---0---0--| 
Bb|--0---7---0---0--| 
Gb|--5---7---4---0--| 
Db|--7---0---0---0--| 
Ab|--7---0---5---5--| 
Eb|-----------------| 


Second Chorus Play Twice 

Eb|--3---x---0---x--| 
Bb|--3---7---5---7--| 
Gb|--0---7---0---7--| 
Db|--0---0---7---0--| 
Ab|--2---0---7---0--| 
Eb|--3-------0------| 


End Of Chorus 

Eb|--0---x--| 
Bb|--0---7--| 
Gb|--5---7--| 
Db|--7---0--| 
Ab|--7---0--| 
Eb|---------| 


Outro - Play Twice: "Wearing out...." 

Eb|--0---0---0---0---0---0--| 
Bb|--0---0---0---0---0---0--| 
Gb|--0---0---0---0---0---0--| 
Db|--0---4---5---0---4---5--| 
Ab|--2---2---2---2---2---2--| 
Eb|--3---3---3---3---3---3--| 

Eb|--0---x--| 
Bb|--0---7--| 
Gb|--4---7--| 
Db|--0---0--| 
Ab|--5---0--| 
Eb|---------| 

------------------------- 

End Song On 

Db|--3--| 
Db|--3--| 
Db|--0--| 
Db|--0--| 
Ab|--2--| 
Db|--3--|
Comments