Dashboard Confessional - The Swiss Army Romance Chords & Tabs

 

The Swiss Army Romance Chords & Tabs

Dashboard Confessional Chords & Tabs

Version: 1 Type: Tab 0 ratings
1 star 2 stars 3 stars 4 stars 5 stars
comments

The Swiss Army Romance Tab

   
The Swiss Army Romance

Notes: This has no stumming help, or rhythm.
Tuning: Eb-Ab-Db-Gb-Bb-Db

Verse
"Sleep with all the lights on... "

Eb|--0--0--0--0-------------------------
Ab|--0--0--0--0-------------------------
Db|--4--4--3--6-------------------------
Gb|--6--6--4--7-------------------------
Bb|--7--7--4--7-------------------------
Eb|--0--5--0--0-------------------------

Bridge/Chorus
"College Night will draw the crowds..."
[ Tab from: http://www.guitartabs.cc/tabs/d/dashboard_confessional/the_swiss_army_romance_tab.html ]
Eb|--0--0--0--0-------------------------
Ab|--0--0--0--0-------------------------
Db|--9--9--6--4-------------------------
Gb|--9--9--6--4-------------------------
Bb|--7--6--4--2-------------------------
Eb|--0--0--0--0-------------------------

End
"We're not 21, but the sooner....."

Eb|--0--0--0--0-------------------------
Ab|--0--0--0--0-------------------------
Db|--1--6--3--2-------------------------
Gb|--2--7--4--2-------------------------
Bb|--2--7--4--0-------------------------
Eb|--0--0--0--0-------------------------

The Second time it changes a little.
Eb|--0--0--0--0-------------------------
Ab|--0--0--0--0-------------------------
Db|--1--2--3--6-------------------------
Gb|--2--2--4--7-------------------------
Bb|--2--0--4--7-------------------------
Eb|--0--0--0--0-------------------------

Ends on

Eb|--0--
Ab|--0--
Db|--1--
Gb|--2--
Bb|--2--
Eb|--0--
Comments