Dashboard Confessional - The Swiss Army Romance Chords & Tabs

 

The Swiss Army Romance Chords & Tabs

Dashboard Confessional Chords & Tabs

Version: 1 Type: Chords 0 ratings
1 star 2 stars 3 stars 4 stars 5 stars
comments

The Swiss Army Romance Chords

#----------------------------------PLEASE NOTE--------------------------------#
#This file is the author's own work and represents their interpretation of the#
#song. You may only use this file for private study, scholarship, or research.#
#-----------------------------------------------------------------------------#
#-- File created with Instab - http://www.pconline.com/~smcarey/instab.html --#
#-----------------------------------------------------------------------------#

Author/Artist: Dashboard Confessional
Title: The Swiss Army Romance
Album: The Swiss Army Romance
Transcribed by: improviduto (Trevor)
Email: theycallmetheglove@hotmail.com

Tuning: EbAbDbGbBbEb (half-step down)

Notes: Great for those teeny bopper graduation parties



[ Tab from: http://www.guitartabs.cc/tabs/d/dashboard_confessional/the_swiss_army_romance_crd.html ]
[Verse]


Eb|--0--0--0--0--| 
Bb|--0--0--0--0--| 
Gb|--4--4--3--6--| 
Db|--6--6--4--7--| 
Ab|--7--7--4--7--| 
Eb|--0--5--0--0--| 


[Chorus] 
 

Eb|--0--0--0--0--|
Bb|--0--0--0--0--| 
Gb|--9--9--6--4--| 
Db|--9--9--6--4--| 
Ab|--7--6--4--2--| 
Eb|--0--0--0--0--|


[Bridge] 

Eb|--0--0--0--0--|
Bb|--0--0--0--0--| 
Gb|--9--9--6--4--| 
Db|--9--9--6--4--| 
Ab|--7--6--4--2--| 
Eb|--0--0--0--0--|


[Outro] 
 

Eb|--0--0--0--0--| 
Bb|--0--0--0--0--| 
Gb|--1--6--3--2--| 
Db|--2--7--4--2--| 
Ab|--2--7--4--0--| 
Eb|--0--0--0--0--| 

 
Eb|--0--0--0--0--| 
Bb|--0--0--0--0--| 
Gb|--1--2--3--6--| 
Db|--2--2--4--7--| 
Ab|--2--0--4--7--| 
Eb|--0--0--0--0--| 


[End]

Eb|--0--|| 
Bb|--0--|| 
Gb|--1--|| 
Db|--2--|| 
Ab|--2--|| 
Eb|--0--||
Comments