Dashboard Confessional - The Places You Have Come To Fear The Most Chords & Tabs

 

The Places You Have Come To Fear The Most Chords & Tabs

Dashboard Confessional Chords & Tabs

Version: 4 Type: Tab 0 ratings
1 star 2 stars 3 stars 4 stars 5 stars
comments

The Places You Have Come To Fear The Most Tab

TUNED HALF STEP DOWN E MINOR!


INTRO:

Eb----------------------------------------------------------
Bb--0--0--0--0---0--0--0--0-0-0----0-----0-----0------------
Gb--0--0--0--0---0--0--0--0-0-0-----0-0---0-0---0-0---------
Db--9--10-10-4---9--10-10-5-4-2------2-----2-----2----------
Ab--10-10-12-5---10-10-10-7-5-3--------3------3----3--------
Eb---------------------8------------------------------------


VERSE:
Eb--------0--0----0-
Bb--0--0--10-0---10-
Gb--0--0--11-9---11-
Db--9--10-0--10--0--
Ab--10-10----0------
Eb-----8------------ X2


CHORUS:

Eb--0---0---3--3----------3--3--------------------
Bb--0---10--3--3---0-0-0--3--3---0-0-0--0-0-0-----
Gb--9---11--0--2---0-0-0--0--2---0-0-0--0-0-0-----
Db--10--0---0--0---5-4-2--0--0---5-4-2--5-4-2-----
Ab--0-------2--0---7-5-3--2--0---7-5-3--7-5-3-----
Eb----------3--2----------3--2--------------------

VERSE AGAIN:

Eb--------0--0----0-
Bb--0--0--10-0---10-
Gb--0--0--11-9---11-
Db--9--10-0--10--0--
Ab--10-10----0------
Eb-----8------------ X2
[ Tab from: http://www.guitartabs.cc/tabs/d/dashboard_confessional/the_places_you_have_come_to_fear_the_most_tab_ver_4.html ]
CHORUS AGAIN:

Eb--0---0---3--3----------3--3--------------------
Bb--0---10--3--3---0-0-0--3--3---0-0-0--0-0-0#-----
Gb--9---11--0--2---0-0-0--0--2---0-0-0--0-0-0#-----
Db--10--0---0--0---5-4-2--0--0---5-4-2--5-4-2#-----
Ab--0-------2--0---7-5-3--2--0---7-5-3--7-5-3#-----
Eb----------3--2----------3--2--------------------

OUTRO:

Eb--3--3--3--3--3--3--3--3--3--3--3--3--3--3#-
Bb--3--3--0--3--3--3--0--3--0--3--3--0--3--3#-
Gb--0--2--0--0--0--2--0--0--0--2--0--0--2--0#-
Db--0--0--2--2--0--0--2--2--2--0--2--2--0--2#-
Ab--2--X--2--3--2--x--2--3--2--x--3--2--x--3#-
Eb--3--2--0-----3--2--0-----0--2-----0--2----

OUTRO 2:

Eb-----------------------------------------------------------------
Bb--0--0--0--0---0--0--0--0-0---0--0--0--0---0--0--0--0-0----------
Gb--0--0--0--0---0--0--0--0-0---0--0--0--0---0--0--0--0-0 ---------
Db--9--10-10-4---9--10-10-5-4---9--10-10-4---9--10-10-5-4----------
Ab--10-10-12-5---10-10-10-7-5---10-10-12-5---10-10-10-7-5- FADE OUT
Eb---------------------8-------------------------------------------
Comments