Dashboard Confessional - The Places You Have Come To Fear The Most Chords & Tabs

 

The Places You Have Come To Fear The Most Chords & Tabs

Dashboard Confessional Chords & Tabs

Version: 3 Type: Tab 0 ratings
1 star 2 stars 3 stars 4 stars 5 stars
comments

The Places You Have Come To Fear The Most Tab

   
THE PLACES YOU HAVE COME TO FEAR THE MOST - Dashboard Confessional

posted by: Joey G. -- JoeyGee05@cs.com
tabbed by:syl

tune down  Eb Ab Db Gb Bb Eb 

chords

Em Eb(0)   Am  Eb(0)     C maj7 Eb(0) Dadd11 Eb(0)    
   Bb(0)       Bb(0)            Bb(0)        Bb(0)
   Gb(0)       Gb(0)            Gb(0)        Gb(0)
   Db(9)       Db(10)           Db(10)       Db(4)
   Ab(7)       Ab(7)            Ab(10)       Ab(5)
   Eb(x)       Eb(x)            Eb(x)        Eb(x)

F ma7   Eb(0)  G   Eb(3)  G/D Eb(10)       D Eb(2)
        Bb(0)      Bb(3)      Bb(8)          Bb(3)
        Gb(0)      Gb(0)      Gb(0)          Gb(2)
        Db(2)      Db(0)      Db(0)          Db(0) 
        Ab(3)      Ab(2)      Ab(x)          Ab(0)
        Eb(x)      Eb(3)      Eb(x)          Eb(x)

Intro
Em   Am   C maj7  D add11

Em   Am    C maj7   D add11  F maj7

--0----------------------------------------------
--0--------0-----------0------------0------------
--0--0-------0---0------------0-------0----------
--2----2-----------2------------2----------------
--3------3-----------3------3-----3--------------
-------------------------------------------------

Em                          Am       
Buried deep as you can dig inside yourself,
    D
and covered with a perfect shell,
Am        D
such a charming beautiful exterior.
Em                                      Am
Laced with brilliant smiles and shining eyes 
                                D                            
and perfect posture, but you're barely scraping by,


            Am     D              Am
but you're barely scraping by. 
[ Tab from: http://www.guitartabs.cc/tabs/d/dashboard_confessional/the_places_you_have_come_to_fear_the_most_tab_ver_3.html ]
                       D
Well this is one time,
                  G
this is one time 
                                      G/D
that you can't fake it hard enough to please 
            Em        D add11  Fmaj7
everyone or anyone at all, or anyone at all.
        G
And the grave that you refuse to leave the 
G/D
refuge that you've built to flee 
    Em                 D add11          Fmaj7
the places that you've come to fear the most,
        Em                 D add11          Fmaj7
is the place that you have come to fear the most. 

Em                          Am    
Buried deep as you can dig inside yourself 
                  D
and hidden in the public eye 
               Am          D
such a stellar monument to loneliness. 
Em                                      Am
Laced with brilliant smiles and shining eyes 

                                D
and perfect posture, but you're barely scraping by,


            Am     D              Am
but you're barely scraping by. 

                        D
Well this is one time,
                  G
this is one time 
                                      G/D
that you can't fake it hard enough to please 
            Em        D add11  Fmaj7
everyone or anyone at all, or anyone at all.
        G
And the grave that you refuse to leave the 
G/D
refuge that you've built to flee 
    Em                 D add11          Fmaj7
the places that you've come to fear the most,
        Em                 D add11          Fmaj7
is the place that you have come to fear the most. 

Em   Am   C maj7  D add11  
Em   Am   C maj7  D add11 ........................


===

Tabbed by Justin Flynn
Email: jutd1220@hotmail.com (if you have comments)

Band: Dashboard Confessional
Song: The Places You Have Come To Fear The Most

Tuning: Eb Ab Db Gb Bb Eb
   half step down

/=slide up
\=slide down

        NOTE: Not Exact Picking(figure it out!)
   ~~~~~~~~~~~~~~~~~~~~~~~~~~~~~~~~~~~~~~~~~~~~~~~~~~
Intro
e|---0----0----0----0----0----0---0---0---0---0--
B|---0----0----0----0----0----0---0---0---0---0--
G|---0----0----0----0----0----0---0---0---0---0--
D|---9---10---10----7----9---10---7---5---4---2--
A|--10---10---12----9---10---10---9---7---5---3--
E|-------------------------------------------

e|--------------|-----------
B|----0---------|-0---------1st
G|------0---0---|---0---0---time
D|--------2-----|-----2-----only
A|--3---------3-|-----------
E|--------------|-----------

Verse
e|---0----0----0----0----0--|---0----0--
B|---0----0----0----0----0--|---0----0--
G|---0----0---11----0---11--|---0---11--
D|---9---10---12---10---12--|--10---12--
A|--10---10----0---10----0--|--12----0--
E|--------------------------|-----------

Chorus
e|---0---10----0---0---0--
B|---0----0----0---0---0--
G|---0----0----0---0---0--
D|---9----9----5---4---2--
A|--10---10----7---5---3--
E|------------------------

Bridge
e|--3---3---3---3--
B|--3---3---3---3--
G|--0---0---0---0--
D|--0---0---2---2--
A|--2---0---2---3--
E|--3---2---0------
Comments