Dashboard Confessional - The Places You Have Come To Fear The Most Chords & Tabs

 

The Places You Have Come To Fear The Most Chords & Tabs

Dashboard Confessional Chords & Tabs

Version: 2 Type: Tab 0 ratings
1 star 2 stars 3 stars 4 stars 5 stars
comments

The Places You Have Come To Fear The Most Tab

this is the correct version i swear!
Chris himself showed me after a show he did down here! enjoy duude!

Intro
Eb|--x---x---x--x----x---x---x--x-- 
Bb|--0---0---0--0----0---0---0--0-- 
Gb|--0---0---0--0----0---0---0--0-- 
Db|--9--10--10--7----9--10---5--4-- 
Ab|-10--10--12--9---10--10---7--5-- 
Eb|--x---x---x--x----x---x---x--x-- 

Eb--x------------------------------------------ 
Bb--0--0------------0-------------0------------ 
Gb--0----0---0--------0----0--------0----0----- 
Db--2------2-------------2-------------2------- 
Ab--3-----------3--------------3------------3-- 
Eb--------------------------------------------- 

verses (buried deep..so and so)
Eb|---x---x---x---x---x------------------------
Bb|---0---0--10---0--10------------------------ 
Gb|---0---0--11---9--11------------------------ 
Db|---9--10---0--10---0------------------------ 
Ab|--10--10---0---0---0------------------------ 
Eb|--x----x---x---x---x------------------------ 
[ Tab from: http://www.guitartabs.cc/tabs/d/dashboard_confessional/the_places_you_have_come_to_fear_the_most_tab_ver_2.html ]
Chorus (..well this is one time)
Eb|-----x---x---x---x--x--x--x-------- 
Bb|-----0--10---0---0--0--0--0-------- 
Gb|-----9--11---0---0--0--0--0-------- 
Db|----10---0---9--10--5--4--2-------- 
Ab|-----0---0--10---7--7--5--3-------- 
Eb|-----x---x---x---x--x--x--x--------

Chorus cont. (..and the grave that you..)
Eb|---x---x--x--x--x--x--x--x--------- 
Bb|---0---0--0--0--0--0--0--0--------- 
Gb|---0---0--0--0--0--0--0--0---------
Db|---9--10--5--4--2--5--4--2--------- 
Ab|--10---7--7--5--3--7--5--3--------- 

SCREAMING Part! (..well you cant fake it..)
Eb|--3--3--3--3---3--3--3--3-- 
Bb|--3--3--3--3---3--3--3--3--
Gb|--0--0--0--0---0--0--0--0--
Db|--0--0--2--2---0--0--2--2--
Ab|--2--x--0--3---2--x--0--3-- 
Eb|--3--2--x--x---3--2--x--x-- 

SCREAMING Cont. (..its the places you have..)

Eb|-----3--3--3--3--- 
Bb|-----3--3--3--3--- 
Gb|-----0--0--0--0--- 
Db|-----2--2--2--2---   
Ab|-----0--3--0--3---   
Eb|-----0--0--0--0--- 

Outro:                                    (end on)
Eb|--x----x---x---x----x----x--x--x--    |-3-|
Bb|--0----0---0---0----0----0--0--0--    |-3-|
Gb|--0----0---0---0----0----0--0--0--X 2 |-0-|
Db|--9---10--10---7----9---10--5--4--    |-0-|
Ab|--10--10--12---9---10---10--7--5--    |-2-|
Eb|---x---x----x--x----x----x--x--x--    |-3-|

thats it! any questions? comments? hate mail? threats?
email em at rufio777@excite.com! laters duude...
Comments