Dashboard Confessional - The Good Fight Chords & Tabs

 

The Good Fight Chords & Tabs

Dashboard Confessional Chords & Tabs

Version: 1 Type: Tab 0 ratings
1 star 2 stars 3 stars 4 stars 5 stars
comments

The Good Fight Tab

   
tuning Eb-Ab-Db-Gb-Bb-Eb

intro
----4p0---2p0-----0----2p0------4p0----2p0-0----
---0-----0---4p0-0-0--0---4p0--0------0----0----
-/6----/4-------2---/4-------/6-----/4-----2----
-------------------------------------------2----
-------------------------------------------0----
-------------------------------------------0----
[ Tab from: http://www.guitartabs.cc/tabs/d/dashboard_confessional/the_good_fight_tab.html ]
Verse
-0--0--0--0---------------------------------------------
-0--0--0--0---------------------------------------------
-1--2--6--0---------------------------------------------
-2--4--6--7---------------------------------------------
-2--4--4--7--figure out the strum pattern, its easy-----
-0--0--0--5---------------------------------------------


Chorus
---------------------------------------------------
---------------------------------------------------
---------------------------------------------------
-14---9--7-----------------------------------------
-14---9--7---very easy strumming pattern here too--
-12---7--5-----------------------------------------

there is also an interlude bridge sorta thing in there when hes like, comforts you to know
you fought the good fight etc... if anyone knows that part plz let me know
Comments