Dashboard Confessional - The Good Fight Chords & Tabs

 

The Good Fight Chords & Tabs

Dashboard Confessional Chords & Tabs

Version: 2 Type: Chords 0 ratings
1 star 2 stars 3 stars 4 stars 5 stars
comments

The Good Fight Chords

   
----------------------------------------------------------------------------                  
THE GOOD FIGHT - Dashboard Confesional
----------------------------------------------------------------------------
Tabbed by:Ruben DeLaHuerta
Email:delahuertar3058@hotmail.com

Tuning: down half step (Eb,Ab,Db,Gb,Bb,Eb)

this song is realy easy once you get the rythm (listen to the song . . .
you'll get it)it's mostly basic chords except for the little solo part, well, here it is . . .

chords used in this song:
        E        F#m           C#m           A        B
|-------0--------0-------------0-------------0--------0-----|
|-------0--------0-------------0-------------0--------0-----|
|-------1--------2-------------6-------------6--------8-----|
|-------2--------4-------------6-------------7--------9-----|
|-------2--------4-------------4-------------7--------9-----|
|-------0--------0-------------0-------------5--------7-----|

intro:
intro:
|-----4p0------2p0----------0--------2p0----------4p0------2p0------0-|
|---0--------0-----4p0----0---0----0-----4p0----0--------0-----4p0--0-|
|-6--------4------------2--------4------------6--------4------------2-|
|-------------------------------------------------------------------2-|
|-------------------------------------------------------------------0-|
|---------------------------------------------------------------------|

verse:

 E             F#m                C#m                    A(bar) 
 Consider the odds, consider the obvious, the martyr is meaningless,


                  E                    F#m                    C#m
 the campaign has died. In the planning stages and the fallen faces,


                  A(bar)                 E 
 are the singular proof that it was ever alive.


                F#m                C#m                     A(bar)    
 This purchased rebellion has been outdated, denounced and rescinded

             E    F#m           C#m           A
 and left to die, championless, championless, championless

 Chorus1:

  E            B          A(bar mute G) A(bar mute G)
  I begged you not to go, I begged you, I pleaded.


  E                B              A(bar mute G)         A(bar mute G) 
  Claimed you as my only hope, and watched the floor as you retreated.


  E            B          A(bar mute G) A(bar mute G) E
  I begged you not to go, I begged you, I pleaded.

[ Tab from: http://www.guitartabs.cc/tabs/d/dashboard_confessional/the_good_fight_crd_ver_2.html ]
  E              B             A(bar mute G)         A(bar mute G) 
  Claimed you as my only hope, and watched the floor as you retreated.

  Verse2:

  E                 F#m             C#m            A
  Hope has sprung a perfect dive, a perfect day, a perfect lie


  E               F#m       C#m            A
  A slowly crafted monologue conceding your defeat.


  E               F#m                C#m                     A
  This purchased rebellion has been outdated, denounced and rescinded

              E    F#m           C#m           A
  and left to die, championless, championless, championless

  Chorus2:

  E            B          A(bar mute G) A(bar mute G)
  I begged you not to go, I begged you, I pleaded.


  E              B             A(bar mute G)         A(bar mute G) 
  Claimed you as my only hope, and watched the floor as you retreated.


  E            B          A(bar mute G) A(bar mute G) E
  I begged you not to go, I begged you, I pleaded.


  E              B             A(bar mute G)         A(bar mute G) 
  Claimed you as my only hope, and watched the floor as you retreated.

 Solo:

 |--------------------------------------------------|
 |-0-0-0-0-0-0-0-0-0-0-0-0--0-0-0-0-0-0-0-0-0-0-0-0-|
 |-6-6-6-6-6-6-6-6-6-6-6-6--8-8-8-8-8-8-8-8-8-8-8-8-|
 |-7-7-7-7-7-7-7-7-7-7-7-7--9-9-9-9-9-9-9-9-9-9-9-9-|
 |-4-4-4-4-4-4-4-4-4-4-4-4--6-6-6-6-6-6-6-6-6-6-6-6-|
 |--------------------------------------------------|

 Bridge:

 E                      F#m                      C#m            A      
 Does it comfort you to know you fought the good fight?


 E                      F#m                      C#m            A
 Basking in your victory, hollow and alone


 E                      F#m                      C#m            A
 to boast your bitter bragging rights to anyone who'll listen


 E                      F#m                      C#m            A
 While you're left with nothing tangible to gain

 Outro:
 E                      F#m                      C#m            A

 notation:
 | /  slide up
 | \  slide down
 | h  hammer-on
 | p  pull-off
 | ~  vibrato
 | +  harmonic
 | x  Mute note
============================================================================
Comments