Dashboard Confessional - The Good Fight Chords & Tabs

 

The Good Fight Chords & Tabs

Dashboard Confessional Chords & Tabs

Version: 1 Type: Chords 0 ratings
1 star 2 stars 3 stars 4 stars 5 stars
comments

The Good Fight Chords

   
Tuning is down a half step on all strings.

This is 100% Correct.

X=donot play this string
p means pull off.

Intro
      C3m            Bsus4            A          Bsus2
Eb-------4p0----------2p0--------------0---------2p0-------------------------
Bb----0-------------0-----4---------0----0-----0-----4-----------------------
Gb-6--------------4---------4----2-----------4---------4---------------------
Db---------------------------------------------------------------------------
Ab---------------------------------------------------------------------------
Eb---------------------------------------------------------------------------

  Play the first A chord 8 times.  Eighth note strumming here.
Listen to the song for strumming.
[ Tab from: http://www.guitartabs.cc/tabs/d/dashboard_confessional/the_good_fight_crd.html ]
   A  A   E  B  C#m   A   E   B  A  E  B  C#m  A  C#m  Bsus4/D#  E
Eb-x--x---0--x--x-----x---0---0--0--x--x---4---5---0-------0-----0----------
Bb-x--2---0--x--5-----2---0---0--0--7--4---5---5---0-------0-----0----------
Gb-2--2---1--4--6-----2---1---8--6--9--4---6---6---9-------11----13---------
Db-2--2---2--4--6-----2---2---9--7--9--4---6---7---11------9-----14---------
Ab-0--0---2--2--4-----0---2---9--7--9--2---4---7---11------x-----14---------
Eb-x--x---0--x--x-----x---0---7--5--x--x---x---5---9------11-----12---------

Ok on the next part it is just a repition of the same chords in a diff order.

E at the 12th B at the 7th C#m at the 9th B at the 7th and A at the 5th
Comments