Dashboard Confessional - Swiss Army Romance Chords & Tabs

 

Swiss Army Romance Chords & Tabs

Dashboard Confessional Chords & Tabs

Version: 3 Type: Tab 0 ratings
1 star 2 stars 3 stars 4 stars 5 stars
comments

Swiss Army Romance Tab

TUNED HALF STEP DOWN E MINOR!!

Verse

Eb|--0--0--0--0-------------------------
Ab|--0--0--0--0-------------------------
Db|--4--4--3--6-------------------------
Gb|--6--6--4--7-------------------------   X4
Bb|--7--7--4--7-------------------------
Eb|--0--5--x--x-------------------------

Bridge

Eb|--0--0--0--0-------------------------
Ab|--0--0--0--0-------------------------
Db|--9--9--6--4-------------------------
Gb|--9--9--6--4-------------------------  X4
Bb|--7--6--4--2-------------------------
Eb|--0--0--0--0-------------------------


Verse again:
[ Tab from: http://www.guitartabs.cc/tabs/d/dashboard_confessional/swiss_army_romance_tab_ver_3.html ]
Eb|--0--0--0--0-------------------------
Ab|--0--0--0--0-------------------------
Db|--4--4--3--6-------------------------
Gb|--6--6--4--7------------------------- X4
Bb|--7--7--4--7-------------------------
Eb|--0--5--x--x-------------------------

OUTRO:

Eb|--0--0--0--0-------------------------
Ab|--0--0--0--0-------------------------
Db|--1--6--3--2-------------------------
Gb|--2--7--4--2-------------------------
Bb|--2--7--4--0------------------------- X4
Eb|--0--x--x--0-------------------------

The it goes like this
Eb|--0--0--0--0-------------------------
Ab|--0--0--0--0-------------------------
Db|--1--2--3--6------------------------- X4
Gb|--2--2--4--7-------------------------
Bb|--2--0--4--7-------------------------
Eb|--0--0--0--0-------------------------

Grow up FAST"
        Eb|--0--
        Ab|--0--
        Db|--1--
        Gb|--2--
        Bb|--2--
        Eb|--0--
Comments